Song name
# A B C D E F G H I J K L M N O P Q R S T U V W X Y Z

Jon English - Mot Alla Vindar Six Ribbons tab

Sjukt bra låt, och jag hoppas du blir glad nu Tom ;D haha
ENJOY !

Chorus: (dont know how to play them but here they are, they are in the correct order but 
dont know how long they should be and so on ^^)

Am G F Em Am Em Am Em Am Am G F Em Am Em Am Em Am C G Am Em Am Em Am Em Am C Am F C G Am 
Am C Am F C G Am Em Am

/ = Pull slowly down all strings with your thum (from E to E)

E]--------------0-------------------------------------|
B]----0-1-0---3---3-1-0---0-1-0-----------0-----------|
G]---2------0-----------0-------2-0---0-2---0--2------|  x2
D]-2--------------------------------2-----------------|
A]---0----------------------0-----------0------0------|
E]--------3-----1-----0-----------0---------0---------|


E]-----0-----------------------------------------------|
B]-1-3-------3-1---0-----------0-----------0-----------|
G]---------0-----0---2-0---0-2---2-0---0-2---2-0---0-2-|
D]-----------------------2-----------2-----------2-----|
A]---------------------------0-----------0-----------0-|
E]-----3---------3-----0-----------0-----------0-------|

E]----------------------------------------------------|
B]-0--------------------------------------------------|
G]---0-2----------------------------------------------|
D]----------------------------------------------------|
A]-----0----------------------------------------------|
E]---0------------------------------------------------|


E]-/3---0----/3---0---5-3-0---------0-----------------------|
B]-/1-----0--/1-----0-------1-- 1-3---3-1-0---0-1-3---------|
G]-/0--------/0---------------2-------------0-------0-0-2---|
D]-/2--------/2---------------------------------------------|
A]-/3--------/3-----------------------2-0-------0-------0---|
E]-/0--------/0-------0-----1-------3-----3-----------0-----|

E]-/3---0----/3---0---5-3-0---------0-------------------0--|
B]-/1-----0--/1-----0-------1-- 1-3---3-1-0---0-1-3-----0--|
G]-/0--------/0---------------2-------------0-------0-0-3--|
D]-/2--------/2-----------------------------------------0--|
A]-/3--------/3-----------------------2-0-------0----------|
E]-/0--------/0-------0-----1-------3-----3-----------0----|

If you would want it i have the text to, if you want it add send an email to 
<--- OCH TOM DU SKA ADDA DEN ! >_< haha
Tap to rate this tab
# A B C D E F G H I J K L M N O P Q R S T U V W X Y Z