Song name
# A B C D E F G H I J K L M N O P Q R S T U V W X Y Z

Jon Foreman - Learning To Die tab

-------------------------------------------------------------------------------
			     Learning To Die - Jon Foreman
-------------------------------------------------------------------------------
Tuning: Standard
| ^ = Strum Up

        ^               ^       ^
e|---3-333---3-------3-333---2-222|
B|---3-333---3-------3-333---1-111|
G|---0-000---0-------0-000---2-222| x6
D|-------------------------0------|
A|---------3---3-2-0--------------|
E|-3------------------------------|

        ^       ^       ^       ^       ^       ^       ^   Let Ring
e|---0-000---3-333---0-000---0-000---0-000---3-333---0-000--2----------------|
B|---0-000---3-333---0-000---0-000---0-000---3-333---0-000--1----------------|
G|----------------------------------------------------------2----------------|
D|---------------------------------------------------------------------------|
A|---------3---------------2---------------3---------------------------------|
E|-0---------------0---------------0---------------0-------------------------|

        ^               ^       ^
e|---3-333---3-------3-333---2-222|
B|---3-333---3-------3-333---1-111|
G|---0-000---0-------0-000---2-222| x2
D|-------------------------0------|
A|---------3---3-2-0--------------|
E|-3------------------------------|

        ^       ^
e|---2-222-2-2-222-|
B|---1-111-1-1-111-|
G|---2-222-2-2-222-|
D|-0---------------|
A|-----------------|
E|-----------------|
        ^               ^       ^
e|---3-333---3-------3-333---2-222|
B|---3-333---3-------3-333---1-111|
G|---0-000---0-------0-000---2-222| x6
D|-------------------------0------|
A|---------3---3-2-0--------------|
E|-3------------------------------|

        ^       ^       ^       ^       ^       ^       ^   Let Ring
e|---0-000---3-333---0-000---0-000---0-000---3-333---0-000--2----------------|
B|---0-000---3-333---0-000---0-000---0-000---3-333---0-000--1----------------|
G|----------------------------------------------------------2----------------|
D|---------------------------------------------------------------------------|
A|---------3---------------2---------------3---------------------------------|
E|-0---------------0---------------0---------------0-------------------------|

        ^               ^       ^
e|---3-333---3-------3-333---2-222|
B|---3-333---3-------3-333---1-111|
G|---0-000---0-------0-000---2-222| x2
D|-------------------------0------|
A|---------3---3-2-0--------------|
E|-3------------------------------|

        ^       ^
e|---2-222-2-2-222-|
B|---1-111-1-1-111-|
G|---2-222-2-2-222-|
D|-0---------------|
A|-----------------|
E|-----------------|



===============================================================================
Tap to rate this tab
 
# A B C D E F G H I J K L M N O P Q R S T U V W X Y Z