Song name
# A B C D E F G H I J K L M N O P Q R S T U V W X Y Z

Jon Foreman - Somebodys Baby tab

-----------------------------------------------------------------------------
                             SOMEBODY'S BABY              JON FOREMAN
-----------------------------------------------------------------------------

Tabbed by:hurricaneherman

Acoustic Guitar:Standard Tuning
Electric Guitar:Standard Tuning

~INTRO~

 |acoustic|
e|-----------------------------------------------------------------|
B|--------0---------------0---------------0---------------0--------|
G|-----(0)----0-------0---------0------(0)----0-------0----------0-|
D|----------------0h2-----------------------------0h2--------------|X[2]
A|3-------------------------------3--------------------------------|
E|-----------------------------------------------------------------|


~VERSE 1~


 |acoustic|
e|-----------------------------------------------------------------|___
B|--------0---------------0---------------0---------------0--------|   |
G|------------0-------0---------0-------------0-------0----------0-|   |
D|----------------0h2-----------------------------0h2--------------|   |
A|3-------------------------------3--------------------------------|   |
E|-----------------------------------------------------------------|   |
                                                                       |
 |acoustic|                                                            |
e|-----------------------------------------------------------------|   |
B|--------0---------------0---------------0---------------0--------|   |
G|------------0-------0---------0-------------0-------0----------0-|   |
D|----------------0h2-----------------------------0h2--------------|   |
A|0-------------------------------0--------------------------------|   |
E|-----------------------------------------------------------------|   |
                                                                       |X[2]
 |acoustic|                                                            |
e|-----------------------------------------------------------------|   |
B|--------0---------------0---------------0---------------0--------|   |
G|------------0-------0---------0-------------0-------0----------0-|   |
D|----------------0h2-----------------------------0h2--------------|   |
A|-----------------------------------------------------------------|   |
E|1-------------------------------1--------------------------------|   |
                                                                       |
 |acoustic|                                                            |
e|-----------------------------------------------------------------|   |
B|--------0---------------0---------------0---------------0--------|   |
G|------------0-------0---------0-------------0-------0----------0-|   |
D|----------------0h2-----------------------------0h2--------------|   |
A|3-------------------------------3--------------------------------|___|
E|-----------------------------------------------------------------|


~CHORUS 1~


 |acoustic|
e|-----------------------------------------------------------------|
B|--------1---------------1---------------1---------------1--------|
G|------------0-------0---------0-------------0-------0----------0-|
D|----------------0h2-----------------------------0h2--------------|
A|-----------------------------------------------------------------|
E|1-------------------------------1--------------------------------|

 |acoustic|
e|-----------------------------------------------------------------|
B|--------1---------------1---------------1---------------1p0------|
G|------------0-------0---------0-------------0-------0--------0---|
D|----------------0h2-----------------------------0h2--------------|
A|0-------------------------------0--------------------------------|
E|-----------------------------------------------------------------|


 |acoustic|
e|-----------------------------------------------------------------|
B|--------1---------------1---------------1---------------1--------|
G|------------0-------0---------0-------------0-------0----------0-|
D|----------------0h2-----------------------------0h2--------------|
A|-----------------------------------------------------------------|
E|1-------------------------------1--------------------------------|

 |acoustic|
e|-----------------------------------------------------------------|
B|--------1---------------1---------------0---------------0--------|
G|------------0-------0---------0---------------0---------------0--|
D|----------------0h2----------------------------------------------|
A|0-------------------------------2--------------------------------|
E|------------------------------------------------3----------------|


~INTERLUDE~


 |acoustic|
e|-----------------------------------------------------------------|
B|--------0---------------0---------------0---------------0--------|
G|-----(0)----0-------0---------0------(0)----0-------0----------0-|
D|----------------0h2-----------------------------0h2--------------|
A|3-------------------------------3--------------------------------|
E|-----------------------------------------------------------------|

~VERSE 2~

The acoustic guitar plays the same as verse 1.


 |electric|
e|--------|
B|--------|
G|0-------|
D|--------|(right after the word "teeth")
A|--------|
E|--------|


~CHORUS 2~


 |acoustic|
e|-----------------------------------------------------------------|
B|--------1---------------1---------------1---------------1--------|
G|------------0-------0---------0-------------0-------0--------0---|
D|----------------0h2-----------------------------0h2--------------|
A|-----------------------------------------------------------------|
E|1-------------------------------1--------------------------------|
 |electric|                                                        |
e|-----------------------------------------------------------------|
B|-----------------------------------------------------------------|
G|0----------------------------------------------------------------|
D|-----------------------------------------------------------------|
A|-------------------------------------------------------------0---|
E|-----------------------------------------------------------------|

 |acoustic|
e|-----------------------------------------------------------------|
B|--------1---------------1---------------1---------------1p0------|
G|------------0-------0---------0-------------0-------0--------0---|
D|----------------0h2-----------------------------0h2--------------|
A|0-------------------------------0--------------------------------|
E|-----------------------------------------------------------------|
 |electric|                                                        |
e|-----------------------------------------------------------------|
B|-----------------------------------------------------------------|
G|-----------------------------------------------------------------|
D|2----------------------------------------------------------------|
A|-----------------------------------------------------------------|
E|-----------------------------------------------------------------|

 |acoustic|
e|-----------------------------------------------------------------|
B|--------0---------------1---------------1---------------1--------|
G|------------0-------0---------0-------------0-------0--------0---|
D|----------------0h2-----------------------------0h2--------------|
A|-----------------------------------------------------------------|
E|1-------------------------------1--------------------------------|
 |electric|                                                        |
e|-----------------------------------------------------------------|
B|-----------------------------------------------------------------|
G|0----------------------------------------------------------------|
D|-----------------------------------------------------------------|
A|-------------------------------------------------------------0---|
E|-----------------------------------------------------------------|

 |acoustic|
e|-----------------------------------------------------------------|
B|--------1---------------1---------------0---------------0--------|
G|------------0-------0---------0---------------0--------------0---|
D|----------------0h2----------------------------------------------|
A|0-------------------------------2--------------------------------|
E|------------------------------------------------3----------------|
 |electric|                                                        |
e|-----------------------------------------------------------------|
B|-----------------------------------------------------------------|
G|-----------------------------------------------------------------|
D|2----------------------------------------------------------------|
A|-----------------------------------------------------------------|
E|-----------------------------------------------------------------|


~REPEAT INTERLUDE~


~BRIDGE~


Acoustic guitar plays the intro riff X8 and the electric plays this.
                                                                   |
 |electric|                                                        |
e|0----------------------------------------------------------------|
B|0----------------------------------------------------------------|
G|0----------------------------------------------------------------|
D|2----------------------------------------------------------------|
A|3----------------------------------------------------------------|
E|-----------------------------------------------------------------|


 |acoustic|
e|-----------------------------------------------------------------|
B|--------1---------------1---------------1---------------1--------|
G|-----(0)----0-------0---------0------(0)----0-------0----------0-|
D|----------------0h2-----------------------------0h2--------------|
A|3-------------------------------3--------------------------------|
E|-----------------------------------------------------------------|

 |acoustic|
e|-----------------------------------------------------------------|
B|--------1---------------1---------------1---------------1--------|
G|-----(0)----0-------0---------0------(0)----0-------0----------0-|
D|----------------0h2-----------------------------0h2--------------|
A|0-------------------------------0--------------------------------|
E|-----------------------------------------------------------------|

 |acoustic|
e|-----------------------------------------------------------------|
B|--------1---------------1---------------1---------------1--------|
G|-----(0)----0-------0---------0------(0)----0-------0----------0-|
D|----------------0h2-----------------------------0h2--------------|
A|3-------------------------------3--------------------------------|
E|-----------------------------------------------------------------|

 |acoustic|
e|-----------------------------------------------------------------|
B|--------1---------------1---------------0---------------0--------|
G|-----(0)----0-------0---------0---------------0--------------0---|
D|----------------0h2----------------------------------------------|
A|0-------------------------------2--------------------------------|
E|------------------------------------------------3----------------|


~REPEAT INTERLUDE~


~VERSE 3~


 |acoustic|
e|----------------------------------------------------------------|
B|----------------------------------------------------------------|
G|----0---------------0---------------0---------------0-----------|
D|--------0-0h2-----------0-0h2-----------0-0h2-----------0-0h2---|
A|3---------------3---------------0---------------0---------------|
E|----------------------------------------------------------------|

 |acoustic|
e|----------------------------------------------------------------|
B|----------------------------------------------------------------|
G|----0---------------0---------------0---------------0---------0-|
D|--------0-0h2-----------0-0h2-----------0-0h2-----------0-0h2--2|
A|--------------------------------3---------------3---------------|
E|1---------------1-----------------------------------------------|

 |acoustic|
e|----------------------------------------------------------------|
B|----------------------------------------------------------------|
G|----0---------------0---------------0---------------0-----------|
D|--------0-0h2-----------0-0h2-----------0-0h2-----------0-0h2---|
A|3---------------3---------------0---------------0---------------|
E|----------------------------------------------------------------|
 |electric|                                                       |
e|----------------------------------------------------------------|
B|----------------------------------------------------------------|
G|----0-------------------------------0---------------------------|
D|----------------------------------------------------------------|
A|3---------------------------------------------------------------|
E|--------------------------------0-------------------------------|

 |acoustic|
e|----------------------------------------------------------------|
B|----------------------------------------------------------------|
G|----0---------0-----0---------0-----0---------0-----0---------0-|
D|--------0-0h2--2--------0-0h2--2--------0-0h2--2--------0-0h2--2|
A|--------------------------------3---------------3---------------|
E|1---------------1-----------------------------------------------|


~CHORUS 3~


Acoustic guitar plays the same as chorus 1.

 |electric|
e|----------------------------------------------------------------|
B|----------------------------------------------------------------|
G|--0-------------------------------0-----------------------------|
D|----------------------------------------------------------------|
A|0-------------------------------0-------------------------------|
E|----------------------------------------------------------------|


~OUTRO~


 |acoustic|
e|--------3-------------------------------3-----------------------|
B|------------1-----------1-------------------1-----------1-------|
G|--------------------0---------0---------------------0---------0-|
D|----------------0h2-----------------------------0h2-------------|
A|3-------------------------------3-------------------------------|
E|----------------------------------------------------------------|

 |acoustic|
e|--------3-------------------------------------------------------|
B|------------1-----------1---------------1---------------1-------|
G|--------------------0---------0---------------0---------------0-|
D|----------------0h2---------------------------------------------|
A|0-------------------------------2-------------------------------|
E|------------------------------------------------3---------------|


 |acoustic|
e|--------3-------------------------------3-----------------------|___
B|------------1-----------1-------------------1-----------1-------|   |
G|--------------------0---------0---------------------0-------0---|   |
D|----------------0h2-----------------------------0h2-------------|   |
A|3-------------------------------3-------------------------------|   |
E|----------------------------------------------------------------|   |
 |electric|                                                       |   |
e|----------------------------------------------------------------|   |
B|----------------------------------------------------------------|   |
G|--------0-------------------------------------------------------|   |
D|----------------------------------------------------------------|   |X[2]
A|3---------------------------------------------------------------|   |
E|----------------------------------------------------------------|   |
                                                                      |
 |acoustic|                                                           |
e|--------3-------------------------------------------------------|   |
B|------------1-----------1---------------1---------------1-------|   |
G|--------------------0---------0---------------0---------------0-|   |
D|----------------0h2---------------------------------------------|   |
A|0-------------------------------2-------------------------------|___|
E|------------------------------------------------3---------------|


 |acoustic|
e|--------3-------------------------------3-----------------------|
B|------------1-----------1-------------------1-----------1-------|
G|--------------------0---------0---------------------0---------0-|
D|----------------0h2-----------------------------0h2-------------|
A|3-------------------------------3-------------------------------|
E|----------------------------------------------------------------|

 |acoustic|
e|--------3-------------------------------------------------------|
B|------------1-----------1---------------1---------------1-------|
G|--------------------0---------0---------------0---------------0-|
D|----------------0h2---------------------------------------------|
A|0-------------------------------2-------------------------------|
E|------------------------------------------------3---------------|

 |acoustic|
e|--------------------------------|
B|1-------------------------------|
G|0-------------------------------|
D|2-------------------------------|
A|3-------------------------------|
E|--------------------------------|
 |electric|                       |
e|--------------------------------|
B|--------------------------------|
G|--------------------------------|
D|2-------------------------------|
A|3-------------------------------|
E|--------------------------------|

=============================================================================
I hope this tab was easy enough to follow and that you enjoyed it. If you did
enjoy it a rating would be appreciated. Thanks

Peace, Love, I'm out!
Tap to rate this tab
 
# A B C D E F G H I J K L M N O P Q R S T U V W X Y Z