Song name
# A B C D E F G H I J K L M N O P Q R S T U V W X Y Z

Jon Foreman - My Coffin tab

	
-----------------------------------------------------------------------------
                                MY COFFIN                JON FOREMAN
-----------------------------------------------------------------------------

Tabbed by:hurricaneherman
Tuning:Standard

I found this song at "landofbrokenhearts.org" and decided to tab it.

~INTRO~

e|----------------------------------------------------------------|
B|----------------------------------------------------------------|
G|------------------------1-------------------------------1---4---|
D|----2h4-2-----------4---2-----------2h4-2-----------4---2---2---|
A|0---0---0---0-------0-----------0---0---0---0-------0-----------|
E|----------------0-------------------------------0---------------|

e|----------------------------------------------------------------|
B|----------------------------------------------------------------|
G|------------------------1-------------------------------1-------|
D|----2h4-2-----------4---2-----------2h4-2-----------4---2-------|
A|0---0---0---0-------0-----------0---0---0---0-------0-----------|
E|----------------0-------------------------------0---------------|


~VERSE~

e|----------------------------------------------------------------|
B|----------------------------------------------------------------|
G|------------------------1-------------------------------1-------|
D|----2h4-2-----------4---2-----------2h4-2-----------4---2-------|X[4]
A|0---0---0---0-------0-----------0---0---0---0-------0-----------|
E|----------------0-------------------------------0---------------|
                Dear blue sky are you afraid to die 
              Do you fear you'll never see the morning
            And the twilight comes and you lose your sun
               Does it come to you without a warning

~CHORUS~

C#m                E   A           B
When the pain will stop how will I know
C#m             E                 A         G#m
When the carbon bonds that hold me start to let go
C#m              E     A             B
Is there someone buried beneath this skin
C#m       E             A   B
And is he free when I'm lost in my coffin


~INTERLUDE~

e|----------------------------------------------------------------|
B|----------------------------------------------------------------|
G|------------------------1-------------------------------1-------|
D|----2h4-2-----------4---2-----------2h4-2-----------4---2-------|X[2]
A|0---0---0---0-------0-----------0---0---0---0-------0-----------|
E|----------------0-------------------------------0---------------|


~VERSE~

e|----------------------------------------------------------------|
B|----------------------------------------------------------------|
G|------------------------1-------------------------------1-------|
D|----2h4-2-----------4---2-----------2h4-2-----------4---2-------|X[4]
A|0---0---0---0-------0-----------0---0---0---0-------0-----------|
E|----------------0-------------------------------0---------------|
             Dear moonlight when you shine at night
            Do you fear you'll use up your resources
        With the sun as king do you feel for it's string
            When the higher powers runs their course

~CHORUS~

C#m                E    A               B
When the rain falls down what brings it back
C#m       E           A           G#m
Opens the resurrected clouds from white to black
C#m           E    A           B
It's a second birth under this skin
C#m   E  A     B
My coffin my coffin

~BRIDGE~

B  A  X[4]

~CHORUS~

C#m           E   A                B
Resurrection comes but death comes first
C#m          E              A                     G#m
All of our entitlements and rights will drive the hearse
C#m          E    A           B
I'm bleeding death death is unmade 
C#m          E               A    B
The minute I lose myself I'm saved from my coffin

~OUTRO~

e|----------------------------------------------------------------|
B|----------------------------------------------------------------|
G|------------------------1-------------------------------1-------|
D|----2h4-2-----------4---2-----------2h4-2-----------4---2-------|
A|0---0---0---0-------0-----------0---0---0---0-------0-----------|
E|----------------0-------------------------------0---------------|

e|----------------------------------------------------------------|0---|
B|----------------------------------------------------------------|0---|
G|------------------------1-------------------------------1-------|1---|
D|----2h4-2-----------5---2-----------9h119-----------4---2-------|2---|
A|0---0---0---0-------0-----------0---0---0---0-------0-----------|2---|
E|----------------0-------------------------------0---------------|0---|

=============================================================================
Thanks for using my tab. Feels good to have someone using something I created.

Peace, Love, I'm out.
Tap to rate this tab
# A B C D E F G H I J K L M N O P Q R S T U V W X Y Z