Song name
# A B C D E F G H I J K L M N O P Q R S T U V W X Y Z

Jon Foreman - Your Love Is Strong tab

Intro:
e|--------------------|
B|--------------------|
G|--4----4-----4---4--|
D|--4----4-----4---4--|  Repeat x2
A|--2----2-----x---2--|
E|--2----0-----4---0--|

Verse:
e|--------------------|
B|--------------------|
G|--4----4-----4---4--|
D|--4----4-----4---4--|  Repeat x4
A|--2----2-----x---2--|
E|--2----0-----4---0--|

then on "lead me far from temptation"
e|--------------------------------|
B|--------------------------------|
G|--4---4---4---4---4---4---4---4-|
D|--4---4---4---4---4---4---4---4-|  
A|--x---2---x---2---2---2---x---2-|
E|--4---0---4---0---2---0---4---0-|

then
e|--------------------|
B|--------------------|
G|--4----4-----4---4--|
D|--4----4-----4---4--|  Repeat x4
A|--2----2-----x---2--|
E|--2----0-----4---0--|

then on "so why should I worry?"
e|--------------------------------|
B|--------------------------------|
G|--4---4---4---4---4---4---4---4-|
D|--4---4---4---4---4---4---4---4-|  
A|--x---2---x---2---2---2---x---2-|
E|--4---0---4---0---2---0---4---0-|

Chorus:
e|-----------------------|
B|----5----7-------------|
G|----6----8----9---11--|   Repeat x3
D|----6----9----9---11--|
A|----4----6----7---9---|
E|----------------------|

Verse 2:
e|--------------------|
B|--------------------|
G|--4----4-----4---4--|
D|--4----4-----4---4--|  Repeat x4
A|--2----2-----x---2--|
E|--2----0-----4---0--|

then on "two things you told me"
e|--------------------------------|
B|--------------------------------|
G|--4---4---4---4---4---4---4---4-|
D|--4---4---4---4---4---4---4---4-|  
A|--x---2---x---2---2---2---x---2-|
E|--4---0---4---0---2---0---4---0-|

Chorus: Same as above

Bridge:
e|----------------------|
B|----5----7------------|
G|----6----8----9---11--|   Repeat x4
D|----6----9----9---11--|
A|----4----6----7---9---|
E|----------------------|

Outro: Same as intro


Tap to rate this tab
 
# A B C D E F G H I J K L M N O P Q R S T U V W X Y Z