Song name
# A B C D E F G H I J K L M N O P Q R S T U V W X Y Z

Jon Foreman - Collide New Song tab

Hey everyone, got a great new JF song here, feel free to have a listen:
http://www.youtube.com/watch?v=tJaCImmEcTA

I've tried to make the tab as accurate as possible - listen for the timing. 
Standard tuning, probably don't want to use a pick. By the way, this song hasn't 
been released on an album or EP yet, so it may not even be called "Collide".

Intro/Verse

e||-------------------------------------------------------------------------|\
B||---------3--------3-------3--------3------3-------3-------3--------3-----| \
G||-----------0h4--------------0h4------------------------------------------|  \
D||----5----------------5----------------------0h4-------------0h4----------|   \
A||--------------------------------------5--------------5-------------------|    \
E||-------------------------------------------------------------------------|     \
 :::::::::::::::::::::::::::::::::::::::::::::::::::::::::::::::::::::::::::::::::2x
e||-------------------------------------------------------------------------|     /
B||-------------------------------------------------------------------------|    /
G||---------0--------0-------0--------0-------0--------0-------0--------0---|   /
D||-----------4h5--------------4h5--------------4h5--------------4h5--------|  /
A||----7----------------7----------------3----------------3-----------------| /
E||-------------------------------------------------------------------------|/

Chorus

e||-----------------------------------------------------------|
B||-----------------------------------------------------------|
G||------0------0------0------0------0------0------0------0---|
D||--------4h5-----------4h5-----------4h5-----------4h5------|
A||--2-------------2-------------3-------------3--------------|
E||-----------------------------------------------------------|
"Our love was an explosion..."

e||-----------------------------------------------------------|
B||-----------------------------------------------------------|
G||------0------0------0------0------0------0------0------0---|
D||--------4h5-----------4h5-----------4h5-----------4h5------|
A||--2-------------2-------------3-------------5--------------|
E||-----------------------------------------------------------|

And that's about it for now! Enjoy and God bless!

-Philip

Lyrics:

My mind is racing forward
But my thoughts are racing back
Back to when I met you
When our world was white and black

Our love was an explosion
I saw colors in the sky
I still can see those sparks
When we collide
When we collide

World is full of fools gold
Sparks that catch the eye
Yours are the only pair of lips
That I want pressed up next to mine

There's lots of pretty faces
But I've got one on my mind
I'm waiting for the day when we collide

When we collide
When we collide
When we collide

We've got our disagreements
Our separate points of view
The line that runs between us
Could be the thread that pulls us through

I know we'll find an answer
All differences aside
I'm waiting for the day when we collide

When we collide
When we collide
When we collide
Tap to rate this tab
# A B C D E F G H I J K L M N O P Q R S T U V W X Y Z