Song name
# A B C D E F G H I J K L M N O P Q R S T U V W X Y Z

Jon Fratelli - Rhythm Doesnt Make You A Dancer tab

Hi, this is my first attempt of a full tab. Enjoy....(Hopefully)
Alex
Standard Tuning

Intro/Verse:

     Am                          C/B                  C
e|-----------------------------------------------------------------------|
B|----------------------------------------------------------1-----1------|
G|---------2------------------------0------------------0------------0----|
D|-----2------2-----------------0-----0------------2------------------2--|
A|--0----------------------2-------------------3-------------------------|
E|-----------------------------------------------------------------------|

        Am                          C/B                  C
e|---------------------------------------------------------------0--------|
B|----------------------------------------------------------1--------1----|
G|---------2------------------------0------------------0---------------0--|
D|-----2------2-----------------0-----0------------2----------------------|
A|--0----------------------2-------------------3--------------------------|
E|------------------------------------------------------------------------|
*with on the third line of every block of lyrics revert back to the 'C/B' instead of the 
second part of the C

Chorus:
e|-------------------------------------------------------------------------|
B|-------------------------------------------------------------------------|
G|-------------------------------------------------------------------------|
D|---------------5-----------------5---5-----------------------------------|
A|----7----7--------7--5--7--7-------------1---1-/-5-\-1---1---1---5----7--|
E|-------------------------------------------------------------------------|         x2

       Am      Am
e|----0-------0-------------------------------------------------------------------|
B|---1--------1-------------------------------------------------------------------|
G|---2--------2-------------------------------------------------------------------|
D|---2--------2-------------------------------------------------------------------|
A|---0--------0-------------------------------------------------------------------|
E|--------------------------------------------------------------------------------|

Verse

Chorus

Pre-solo:

(verse x4)

On 4th time

        Am                          C/B                  Am
e|----------------------------------------------0--------0---0---------------------------|
B|----------------------------------------------1-------1----1---------------------------|
G|---------2------------------------0----------2-------2----2----------------------------|
D|-----2------2-----------------0-----0-------2-------2----2-----------------------------|
A|--0----------------------2-------------------0-------0----0----------------------------|
E|---------------------------------------------------------------------------------------|


Solo:

e|------------------------------------------------------5h7p5---8---------------------------|
B|----15h16p15-----18-----5h7p5---------------------------------5---8-----------------------|
G|------------------------------------------7b---------------------------------5---4--2--2--|
D|------------------------------------------------------------------------------------------|
A|------------------------------------------------------------------------------------------|
E|------------------------------------------------------------------------------------------|

e|---------------------------------------------------------------------------------|
B|---15h16p15----18----------------------------------------------------------------|
G|---------------------------15 17 -17b 17b---15-----------------------------------|
D|--------------------------------------------------------17v----------------------|
A|---------------------------------------------------------------------------------|
E|---------------------------------------------------------------------------------|

e|-----------------------------------------------------------------------------------|
B|-----5h7p5------8------------------------------------------------------------------|
G|--------------------------5-----7---7b---5v----------------------------------------|
D|-------------------------------------------------7v--------------------------------|
A|-----------------------------------------------------------------------------------|
E|-----------------------------------------------------------------------------------|

      Am           C/B                C
e|--0-------------0-------------0----------0----------------------------------------|
B|--1-------------1-------------1----------1----------------------------------------|
G|--2-------------0-------------0----------0----------------------------------------|
D|--2-------------0-------------2----------0----------------------------------------|
A|--0-------------2-------------3----------2----------------------------------------|
E|------------------------------------------3---------------------------------------|

Chorus x2
Verse Until Am finish

Hope this helped,
Feel free to comment or e-mail at althered@hotmail.co.uk with any alteration or advice.

Thanks.
Tap to rate this tab
 
# A B C D E F G H I J K L M N O P Q R S T U V W X Y Z