Song name
# A B C D E F G H I J K L M N O P Q R S T U V W X Y Z

Jon Fratelli - The Magic Hour tab

Hey this is my first tab ever, so i chose a song by my favorite artist "Jon Fratelli" To 
try. 'The Magic Hour', From "The Magic Hour EP".
Here we go.

Intro (Wha-wha)

E -------------------|
B -------------------|
G -9~~~~~~~----------|
D -------------------|
A -------------------|
E -------------------|

"Aw Yeah!"

Chorus

E -------------------------------------------|
B -------------------------------------------|
G -------------------------------------------|
D 9-9-8-7-6-5--------9-9-8-7-6---------------|
A 9-9-8-7-6-5--------9-9-8-7-6---------------|
E 7-7-6-5-4-3-0/3-0--7-7-6-5-4-0/3-0/3-2-0---|  x2

Verse

"Mother I've Been Changin'"

E ------------------------------|
B --6-8p7-6-5-------------------|
G 9-----------------------------|
D ------------------------------|
A ------------------------------|
E ------------------------------|  x4
Tap to rate this tab
# A B C D E F G H I J K L M N O P Q R S T U V W X Y Z