Song name
# A B C D E F G H I J K L M N O P Q R S T U V W X Y Z

Jon Lajoie - I Kill People tab

Standard Tuning

1=E 4=D
2=B 5=A
3=G 6=E

00:00 - 00:17

1:--------|\
2:--------| \
3:--------|  \ Let it ring
4:--------|  / Sound to me like a french horn.
5:--------| /  ''Did you miss me?''
6:-5------|/ 

1:---------------------------|\    
2:------------------17-------| \
3:---------------------------|  \ During Intro, before the gunshot
4:--14--15--17--19-----------|  / Let it ring
5:---------------------------| /  Sound to me like Choirs Aahs
6:---------------------------|/

00:25 - 00:41

1:--------------------------------------------------|\   X2
2:-17-18-17-----------------------------------------| \
3:---------------17-16-17-19-17-16------------------|  \ 
4:----------------------------------19-------14---17|  / 
5:--------------------------------------------------| /
6:--------------------------------------------------|/

That's the verse, before the chorus
I don't know which instrument do it, sry
Maybe ''Rock Organ''...


00:42 - 00:57

1:------------------|\   X2
2:------------------| \
3:------------------|  \ That's the chorus
4:------------------|  / ''Guns don't kill people''...
5:------------------| /  Sound to me like a french horn too...
6:-5-----6-5-4-5----|/ 


That's all the riff in the song, mostly vocal song... Hope that help...
I've found those on guitar, that why i don't know which instrument they are...

Comments and rate! Thanks

MangeuDePoutine@hotmail.com
Tap to rate this tab
# A B C D E F G H I J K L M N O P Q R S T U V W X Y Z