Song name
# A B C D E F G H I J K L M N O P Q R S T U V W X Y Z

Jon Lajoie - Wtf Collective tab

there is no guitar in this song but the synth goes like this

e------------------------------------------------------------------------|
B------------------------------------------------------------------------|
G------------------------------------------------------------------------|
D------------------------------------------------------------------------|
A-------5-7-5------------------------------------------------------------|
E--5-7-8-----8-7---1-3-5-7--3-5-7-8--------------------------------------|

In the Beggining of each MC its just

e------------------------------------------------------------------------|
B------------------------------------------------------------------------|
G------------------------------------------------------------------------|
D------------------------------------------------------------------------|
A------------------------------------------------------------------------|
E--5-------1---3---5-------1---3---5-------1---3---5-------1---3---------|


Altranate between
e------------------------------------------------------------------------|
B------------------------------------------------------------------------|
G------------------------------------------------------------------------|
D------------------------------------------------------------------------|
A-------5-7-5------------------------------------------------------------|
E--5-7-8-----8-7---1-3-5-7--3-5-7-8--------------------------------------|


e------------------------------------------------------------------------|
B------------------------------------------------------------------------|
G------------------------------------------------------------------------|
D------------------------------------------------------------------------|
A------------------------------------------------------------------------|
E--5-------1---3---5-------1---3---5-------1---3---5-------1---3---------|
Tap to rate this tab
# A B C D E F G H I J K L M N O P Q R S T U V W X Y Z