Song name
# A B C D E F G H I J K L M N O P Q R S T U V W X Y Z

Jon Lajoie - 2 Girls 1 Cup Song tab

Figure1:

e|--------------------------------------------------|
B|--4/5-4--4/7-5-4-4/5-4-------4/5-4-5-5/7-5-4-4/5--|
G|-----------------------4/6-4----------------------|
D|--------------------------------------------------|
A|--------------------------------------------------|
E|--------------------------------------------------|

Figure2:                       Figure3:

e|--------------------------|  e|-------------------|
B|--------------------------|  B|--5-4-2------------|
G|------------6-8-9~9/11-9--|  G|--------4-2-1------|
D|------6-7-9---------------|  D|--------------4-2--|
A|--7-9---------------------|  A|-------------------|
E|--------------------------|  E|-------------------|

Figure4:

e|--4---4---4---4---4---4---4---4---4---4---4---4---|
B|----5---5---5---5---5---5---5---5---5---5---5---5-|
G|--------------------------------------------------|
D|--------------------------------------------------|
A|--------------------------------------------------|
E|--------------------------------------------------|

       (Figure1)

Intro: C#m B A E
       C#m B E

C#m        B        A        E
How do you show someone you love
C#m       B       E
That they are the one?
C#m     B       A        E
So many ways to express love
C#m           B          A	A
It's hard to choose just one - how you gonna do it?

      E              A          B             C#m           
Some people like to kiss, some people like to hug   
      E        A                        B            E   (Figure2)
Some lesbians like eating each others shit out of a cup
      E            A                    B      C#m
Some people say I love you, some even shout it out
      E                  A                    B        E (Figure3)
Some people puke semi-digested shit into each other's mouths

C#m        B      A            E
Sometimes making love is not enough
    C#m       B     E
You have to step it up
   C#m  B     A       E
And urinating on her face
   C#m   B        A       A
Is not enough to say - I love you

      E              A          B             C#m           
Some people like to kiss, some people like to hug   
      E        A                        B            E   (Figure2)
Some lesbians like eating each others shit out of a cup
      E            A                    B      C#m
Some people say I love you, some even shout it out
      E                  A                    B        E
Some people puke semi-digested shit into each other's mouths

E

She's covered in vomit and human fecies
That's how I know that she needs me
She's covered in vomit and human fecies
That's how I know that she needs me

(Figure4)

She's covered in vomit and human fecies
That's how I know that she needs me

  A                        Am                    E
Shit in my mouth and I'll puke it all over your face...    I love you
Tap to rate this tab
 
# A B C D E F G H I J K L M N O P Q R S T U V W X Y Z