Jon Lajoie - Too Fast tab

A humorous song by comedian Jon Lajoie :D

The other version of this on UG has the chords pretty much down but
here is the little lead bit at the start

-2-2--x-x-x-0-0-----------------------------------------|
-3-3--x-x-x-2-2-----------------------------------------|
-4-4--x-x-x-2-2-----Repeat------------------------------|
-4-4--x-x-x-2-2-----------------------------------------|
-2-2--x-x-x-0-0-----------------------------------------|
--------------------------------------------------------|


-----------2-3-5-7--9h10p9-7v-------------|
---2-3---5--------------------------------|
-4----------------------------------------|
------------------------------------------|
------------------------------------------|
------------------------------------------|

Hope you enjoy
Peace out
Tap to rate this tab
 
# A B C D E F G H I J K L M N O P Q R S T U V W X Y Z