Song name
# A B C D E F G H I J K L M N O P Q R S T U V W X Y Z

Jon Lajoie - The Best Song tab

Listen to the song so you could figure out the rhythm, if you'd like.

INTRO

e|-12-12-12-12-12-12-12-12-12-12-----| x2
B|-13-13-13-13-13-13-13-13-13-13-----|
G|-------------------------------9---|
D|---------------------------------10|
A|-----------------------------------|
E|-----------------------------------|

CHORUS

e|-12-12-12-12-12-12-12-12-12-12------| 1st, 2nd, and 4th time.
B|-13-13-13-13-13-13-13-13-13-13------|
G|-------------------------------9----|
D|---------------------------------10-|
A|------------------------------------|
E|------------------------------------|

   3rd time

e|-------------------12-12-12-12-----12-|
B|-13-13-13-13-13-13-13-13-13-13-----13-|
G|-14-14-14-14-14-14--------------14----|
D|--------------------------------------|
A|--------------------------------------|
E|--------------------------------------|

VERSE

e|----12-15-12--------12-15-12-----12-15-12-------15-12-| repeat
B|-13----------13--13-----------13----------13-13-------|
G|------------------------------------------------------|
D|------------------------------------------------------|
A|------------------------------------------------------|
E|------------------------------------------------------|

I think i hear another part during the verse, but I'm not too sure.
Anyway, this is what i hear...

e|------------------------------------------------------|
B|------------------------------------------------------|
G|------------------------------------------------------|
D|-10-10-10-10-10--10-10-10-10--10-10-10-10-10-10-10-10-|
A|------------------------------------------------------|
E|------------------------------------------------------|

It's the same rhythm as the verse.

Thank you for checking this tab out and i hope this helped have fun!!!

That's it...ok...bye
Tap to rate this tab
# A B C D E F G H I J K L M N O P Q R S T U V W X Y Z