Song name
# A B C D E F G H I J K L M N O P Q R S T U V W X Y Z

Jon Mclaughlin - Human tab

Human
The Killers
Day and Age
Tabbed by: Jaden Sherrard

Tuning: Standard

This song is mainly all chords but there is one riff in this song, I have also tabbed 
of the keyboard parts that you can do on your guitar.

Intro
e|--------------------------|
B|--------------------------|
G|--------3-------------2---|
D|--0h1h3-------1p0h1h3-----|
A|--------------------------|
E|--------------------------|

Chorus
e|--6---6---6---6---6---6---8-6--|
B|----6---6---6---6---6---6------|
G|-------------------------------|
D|-------------------------------| repeat this riff, until chorus is over
A|-------------------------------|
E|-------------------------------|

Verse (keyboard)
e|--------1--------------------1-------------|
B|-------------------------------------------|
G|--3b~-2----3\2--(x2)---2b~-3----3\2--(x2)--|
D|-------------------------------------------|
A|-------------------------------------------|
E|-------------------------------------------|

Thats it, pretty easy.
Tap to rate this tab
# A B C D E F G H I J K L M N O P Q R S T U V W X Y Z