Song name
# A B C D E F G H I J K L M N O P Q R S T U V W X Y Z

Jon Mclaughlin - So Close tab

So Close
Jon McLaughlin
Intro

Capo on 4th Fret

|--0---------------------|----------------------------|
|-------------3--------1-|-1---------------------1--1-|
|--0-------0--0----------|------------0----------0--0-|
|-------2--------0-h2--2-|-2-------------3------------|
|--3---------------------|-0----3--3--3-----3---------|
|-------------0----------|------------4-------4--3--1-|


|-0----------------------|------|
|-1-------------1--3----1|-1----|
|-0----------0--------0--|-0----|
|-2-------3--------------|-2----|
|-3----3--0--------2-----|-3----|
|------------------------|------|
Tap to rate this tab
 
# A B C D E F G H I J K L M N O P Q R S T U V W X Y Z