Song name
# A B C D E F G H I J K L M N O P Q R S T U V W X Y Z

Jon Secada - If I Never Knew You tab

-------------------------------------------------------------------------------
			     If I Never Knew You  Jon Secada
-------------------------------------------------------------------------------
Tabbed by: Douglas Smith
Email: Douglas-smith@hotmail.co.uk

Tuning: Standard
Intro guitar to the love theme from the 1995 Disney animated film Pocahontas. This 
can be played throughout.

e|-----------------------------------------------------|
B|---3-----3---3---------------3-----3---3-------------|
G|---0-----0---------0---------0-----0---------0-------|
D|-4-----4-----4---4---4-----4-----4-----4---4---4-----|
A|-----------------------5-------------------------5---|
E|-----------------------------------------------------|
Tap to rate this tab
 
# A B C D E F G H I J K L M N O P Q R S T U V W X Y Z