Song name
# A B C D E F G H I J K L M N O P Q R S T U V W X Y Z

Jon Thurlow - Your Faithfulness chords

Highlighted       Show chord diagrams
YOUR FAITHFULNESS - Jon Thurlow

tabbed by: kevinsays
tuning: standard
Whole Song: listen for timing

 Bmaj7    Bbm7     Ebm7     Abm7
e-2--------1--------6----------------|
B-4--------2--------7--------4-------|
G-3--------1--------6--------4-------|
D-4--------3--------8--------4-------|
A-2--------1--------6--------6-------|
E------------------------------------|

 Bmaj7    Bbm7     Ebm7     Abm7
e-2--------1--------6--------4-------|
B-4--------2--------7--------4-------|
G-3--------1--------6--------4-------|
D-4--------3--------8--------4-------|
A-2--------1--------6--------6-------|
E----------------------------4-------|

    Bmaj7                       Bbm7   Ebm7
I remember your faithfulness to Noah
    Abm7                               Ebm7
I remember your faithfulness to Moses
    Bmaj7                       Bbm7   Ebm7
I remember your faithfulness to David
    Abm7
I remember your faithfulness to me

I, I  remember that rainbow
And how Your presence went within
Your sure and steadfast mercies
You have never left me Lord

No one, no one, no one
There is none like you, Jesus
Tap to rate this tab
# A B C D E F G H I J K L M N O P Q R S T U V W X Y Z