Song name
# A B C D E F G H I J K L M N O P Q R S T U V W X Y Z

Jon Troast - All Praises Be tab

ALL PRAISES BE
Jon Troast

http://www.jontroast.com/

Standard tuning

   E                   C#       B      C#       B    A   
e|---------------------9-9h12p9--------9-9h12p9---------------|
B|----------------9-12----------12-9------------12-9----------|
G|-9/11/13--9--11------------------------------------11-9-----|
D|--------------------------------------------------------11--|
A|------------------------------------------------------------|
E|------------------------------------------------------------|


      A    C#   B          E
e|-----------------------------|
B|-----------------------------|
G|-9---------9-11-11h13p11-9---|
D|---11-9-11-------------------|
A|-----------------------------|
E|-----------------------------|


E                         C#m  B
All praises be to God the Father
C#m B      A
And to the Son
     A      C#m    B    E
For He will reign forever

For what am I that He should know me?
Made from the dust
There can be none below me

And yet He calls me by my name
Knows all my steps
And leads me though I stray

(Intro)

He gave me life that I might live it
And gave me love
So only shall I give it

I have no want of earthly treasure
Only to have
A life with Him forever

(Intro)

So brother how can we be silenced?
Sister of mine
This world will recognize us

But hope in this until again
We’ll reign with Him
Forever and amen
Tap to rate this tab
 
# A B C D E F G H I J K L M N O P Q R S T U V W X Y Z