Song name
# A B C D E F G H I J K L M N O P Q R S T U V W X Y Z

Jonah Werner - Moonboots tab

hey this is a great song and this guy is seriously a genious when it comes to music.  i 
this is pretty dang close.  enjoi!

INTRO
strum hitting 6th string and then the first 3 or 4 twice

---5------5------2--- --------|
---5------5------2--- --------|
---6------6------2--- ---7----|
---7------7------4--- ---7----|
---7------7------4--- ---5----|
---5------4------2--- --------|

VERSE
----5----5----2----2--------------------|
----5----5----2----3--------------------|
----6----6----2----2--------------------|  X2
----7----7----4----0--------------------|
----7----7----4----0--------------------|
----5----4----2-------------------------|

PRE CHORUS  X2
"'cause the thing she wanted most was a cup of tang and toast"
-------------------------|
-------------------------|
---4---------------------|
---x----6----------------|
---2----x----------------|
--------4----------------|

"just to share with whoever you are"
------------------|
------------------|
------------------|
---7--6--4--------|
---x--x--x--------|
---5--4--2--------|

CHORUS
"your so high...."
--5----4----2----2---------------|
--5----4----2----3---------------|
--6----4----2----2---------------|
--7----6----4----0---------------|x2
--7----6----4--------------------|
--5----4----2--------------------|

flyyyiiyiyyyyiyyyyy (haha)
----5------0------2------0------5------0------2-| LET RING***
------------------------------------------------|
------------------------------------------------|
--7------2------4------2------7------2------4---|
--7------2------4------2------7------2------4---|
--5------0------2------0------5------0------2---|

and then a little thingy here
--------------|
---2--0-------|
---------2--1-|
--------------|
--------------|
--------------|
2nd VERSE
a little solo or you can just play the same as verse one if you want, im working on teh 
riff for now

CHORUS is same

BRIDGE play with these chords plucking strings (emphasis on the 1st string)
               and strum these
--2----5---  --------------------|
--2----7---  --------------------|
--4----7---  --------------------|
--4----7---  ---7---6---4--------|
--2----5---  ---7---6---4--------|
-----------  ---5---4---2--------|
"fruity i know..."
-----------------------------    -----------------|
-----------------------------    -----------------|
--7---9----------------------    --7----10--------|
--7---9------777-666-444----- X2 --7----10--------|
--5---7------777-666-444-----    --5----8---------|
-------------555-444-222-----    -----------------|

CHORUS again
and end with
------------|
------------|
---7--------|
---7---7----|
---5---7----|
-------5----|

go to http://www.jonahwerner.com
Tap to rate this tab
 
# A B C D E F G H I J K L M N O P Q R S T U V W X Y Z