Song name
# A B C D E F G H I J K L M N O P Q R S T U V W X Y Z

Jonah33 - Solution tab

                                     Jonah33
                                  "The Solution"

this is just the solo and i'm 100% on it

e----------------------------------|
b--4-2-0---0-2-0-2-0-4-0-----------|
g--------3---------------1-4-3-0-1-|
d----------------------------------|
a----------------------------------|
e----------------------------------|

e--11-9-7-6-7-9-7-9-7-11-7-4-7-6-2-3-------------------|
b------------------------------------4-2-2-------------|
g------------------------------------------3-3-0-0-----|
d--------------------------------------------------2-2-|
a------------------------------------------------------|
e------------------------------------------------------|

any questions? email at coldfry1@aol.com
Tap to rate this tab
# A B C D E F G H I J K L M N O P Q R S T U V W X Y Z