Song name
# A B C D E F G H I J K L M N O P Q R S T U V W X Y Z

Jonah33 - Beautiful tab

Jonah33
Beautiful
Jonah33

Capo 1 - tab relative to capo

Intro: 3x
E---2---3---2---3---2---3-|
B-----3-------3-------3---|
G-------------------------|
D-------------------------|
A-3~~~--------------------|
D-------------------------|

E-------------------------|
B-------------------------|
G---5---4---5---4---5---4-|
D-----5-------5-------5---|
A-------------------------|
D-5~~~--------------------|

Verse: not relative to capo = ()
E---2---3-----(11)---2---3-----(11--|
B-----3-----3----------3-----3------|
G-----------------------------------|
D-----------------------------------|
A-3~~~-------------3~~~-------------|
D-----------------------------------|

E---------------------------------|
B---------------------------------|
G---5---4---5---4---5---4---5---4-|
D-----5-------5-------5-------5---|
A---------------------------------|
D-5~~~----------------------------|

Chorus:
E------------------|
B------------------|
G------------------|
D-(10)~-(11)~-(6)~-|
A-(10)~-(11)~-(6)~-|
D-(10)~-(11)~-(6)~-|
3x

G--------------------(12)(12)-(10)(10)~-|
D-(8)-(8)--(6)-(6)~---------------------|
A-(8)-(8)--(6)-(6)~--(10)(10)--(8)-(8)~-|
D-(8)-(8)--(6)-(6)~---------------------|

Verse
Chorus

Break: 32x
D-(6)
A-(6)
D-(6)

8x each note. 8's and 10's are 4x each
D-2-0-(6)-(8)-(10)
A-2-0-(6)-(8)-(10)
D-2-0-(6)-(8)-(10)

8x for 2's, 0's, and 5's.
D-2-0-(6)-(8)(8)-(10)(10)-(11)(11)~
A-2-0-(6)-(8)(8)-(10)(10)-(11)(11)~
D-2-0-(6)-(8)(8)-(10)(10)-(11)(11)~

Chorus
Intro

That's it! Good luck. hope it's not too confusing
Questions?
Email at Coldfry1@aol.com
Tap to rate this tab
 
# A B C D E F G H I J K L M N O P Q R S T U V W X Y Z