Song name
# A B C D E F G H I J K L M N O P Q R S T U V W X Y Z

Jonah33 - Strangest Day tab

Intro: 
D|-------------------|-------------------|-----------------------|-----------------------|
B|-------------------|-------------------|-----------------------|-----------------------|
G|-------------------|-------------------|-----------------------|-----------------------|
D|-------10-------10-|-------10-------10-|---------10---------10-|---------10---------10-|
A|---8--------8------|---8--------8------|----8----------8-------|----8----------8-------|
D|-0---0----0---0----|-0---0----0---0----|-10---10----10---10----|-10---10----10---10----|


|-------------------|-------------------|-----------------|-----------------|
|-------------------|-------------------|-----------------|-----------------|
|-------------------|-------------------|-----------------|-----------------|
|-------10-------10-|-------10-------10-|-------7---------|-------5---------|
|---8--------8------|---8--------8------|---5-------5---5-|---3-------3---3-|
|-8---8----8---8----|-8---8----8---8----|-5---5---5---5---|-3---3---3---3---|

Verse:
|-------------------|-------------------|-----------------------|-----------------------|
|-------------------|-------------------|-----------------------|-----------------------|
|-------------------|-------------------|-----------------------|-----------------------|
|-------10-------10-|-------10-------10-|---------10---------10-|---------10---------10-|
|---8--------8------|---8--------8------|----8----------8-------|----8----------8-------|
|-0---0----0---0----|-0---0----0---0----|-10---10----10---10----|-10---10----10---10----|


|----------------------|-------------------|-----------------|-----------------|
|----------------------|-------------------|-----------------|-----------------|
|----------------------|-------------------|-----------------|-----------------|
|-------10-------10----|-------10-------10-|-------7---------|-------5---------|
|---8--------8---------|---8--------8------|---5-------5---5-|---3-------3---3-|
|-8---8----8---8-------|-8---8----8---8----|-5---5---5---5---|-3---3---3---3---|


|-------------------|-------------------|-----------------------|-----------------------|
|-------------------|-------------------|-----------------------|-----------------------|
|-------------------|-------------------|-----------------------|-----------------------|
|-------10-------10-|-------10-------10-|---------10---------10-|---------10---------10-|
|---8--------8------|---8--------8------|----8----------8-------|----8----------8-------|
|-0---0----0---0----|-0---0----0---0----|-10---10----10---10----|-10---10----10---10----|


|----------------------|-------------------|-----------------|-----------------|
|----------------------|-------------------|-----------------|-----------------|
|----------------------|-------------------|-----------------|-----------------|
|-------10-------10----|-------10-------10-|-------7---------|-------5---------|
|---8--------8---------|---8--------8------|---5-------5---5-|---3-------3---3-|
|-8---8----8---8-------|-8---8----8---8----|-5---5---5---5---|-3---3---3---3---|

Pre Chorus:
|-----------------|-----------------|------------------|-----------------|
|-----------------|-----------------|------------------|-----------------|
|-----------------|-----------------|------------------|-----------------|
|-------5-------5-|-------5-------5-|-------8-------7--|-------5---------|
|---3-------3-----|---3-------3-----|---5-------5------|---5-------5---5-|
|-2---2---2---2---|-2---2---2---2---|-5---5---5---5----|-5---5---5---5---|


|--------------------|-------------------|-----------------------|-----------------------|
|--------------------|-------------------|-----------------------|-----------------------|
|--------------------|-------------------|-----------------------|-----------------------|
|-------10-------10--|-------10-------10-|---------10---------10-|---------10---------10-|
|---8--------8-------|---8--------8------|----8----------8-------|----8----------8-------|
|-0---0----0---0-----|-0---0----0---0----|-10---10----10---10----|-10---10----10---10----|


|-----------------|-----------------|-----------------|-----------------|
|-----------------|-----------------|-----------------|-----------------|
|-----------------|-----------------|-----------------|-----------------|
|-------5-------5-|-------5-------5-|-------8-------7-|-------5---------|
|---3-------3-----|---3-------3-----|---5-------5-----|---5-------5---5-|
|-2---2---2---2---|-2---2---2---2---|-5---5---5---5---|-5---5---5---5---|


|-----------------|-----------------|-------------------------|-------------------------|
|-----------------|-----------------|-------------------------|-------------------------|
|-----------------|-----------------|-------------------------|-------------------------|
|-------2-------3-|-------5---------|----------12----------10-|-10-10-10-10-10-10-10-10-|
|---0-------0-----|---0-------0---0-|----10----------10-------|-10-10-10-10-10-10-10-10-|
|-0---0---0---0---|-0---0---0---0---|-10----10----10----10----|-10-10-10-10-10-10-10-10-|

Chorus:
|-----------------|-----------------|-----------------|-----------------|
|-3-3-3-3-3-3-3-3-|-3-3-3-3-3-3-3-3-|-----------------|-----------------|
|-3-3-3-3-3-3-3-3-|-3-3-3-3-3-3-3-3-|-----------------|-----------------|
|-3-3-3-3-3-3-3-3-|-3-3-3-3-3-3-3-3-|-3-3-3-3-3-3-3-3-|-3-3-3-3-3-3-3-3-|
|-1-1-1-1-1-1-1-1-|-1-1-1-1-1-1-1-1-|-3-3-3-3-3-3-3-3-|-3-3-3-3-3-3-3-3-|
|-x-x-x-x-x-x-x-x-|-x-x-x-x-x-x-x-x-|-3-3-3-3-3-3-3-3-|-3-3-3-3-3-3-3-3-|


|-----------------|-----------------|-----------------|-----------------|
|-----------------|-----------------|-----------------|-----------------|
|-5-5-5-5-5-5-5-5-|-5-5-5-5-5-5-5-5-|-----------------|-----------------|
|-5-5-5-5-5-5-5-5-|-5-5-5-5-5-5-5-5-|-5-5-5-5-5-5-5-5-|-5-5-5-5-5-5-5-5-|
|-3-3-3-3-3-3-3-3-|-3-3-3-3-3-3-3-3-|-5-5-5-5-5-5-5-5-|-5-5-5-5-5-5-5-5-|
|-x-x-x-x-x-x-x-x-|-x-x-x-x-x-x-x-x-|-5-5-5-5-5-5-5-5-|-5-5-5-5-5-5-5-5-|


|-----------------|-----------------|-----------------|-----------------|
|-3-3-3-3-3-3-3-3-|-3-3-3-3-3-3-3-3-|-----------------|-----------------|
|-3-3-3-3-3-3-3-3-|-3-3-3-3-3-3-3-3-|-----------------|-----------------|
|-3-3-3-3-3-3-3-3-|-3-3-3-3-3-3-3-3-|-3-3-3-3-3-3-3-3-|-3-3-3-3-3-3-3-3-|
|-1-1-1-1-1-1-1-1-|-1-1-1-1-1-1-1-1-|-3-3-3-3-3-3-3-3-|-3-3-3-3-3-3-3-3-|
|-x-x-x-x-x-x-x-x-|-x-x-x-x-x-x-x-x-|-3-3-3-3-3-3-3-3-|-3-3-3-3-3-3-3-3-|


|-----------------|-----------------|-----------------|--------------------|
|-----------------|-----------------|-----------------|--------------------|
|-5-5-5-5-5-5-5-5-|-5-5-5-5-5-5-5-5-|-3-3-3-3-3-3-3-3-|-3-3-3-3-3-3-3-3----|
|-5-5-5-5-5-5-5-5-|-5-5-5-5-5-5-5-5-|-3-3-3-3-3-3-3-3-|-3-3-3-3-3-3-3-3----|
|-3-3-3-3-3-3-3-3-|-3-3-3-3-3-3-3-3-|-1-1-1-1-1-1-1-1-|-1-1-1-1-1-1-1-1----|
|-x-x-x-x-x-x-x-x-|-x-x-x-x-x-x-x-x-|-x-x-x-x-x-x-x-x-|-x-x-x-x-x-x-x-x----|

Tap to rate this tab
# A B C D E F G H I J K L M N O P Q R S T U V W X Y Z