Song name
# A B C D E F G H I J K L M N O P Q R S T U V W X Y Z

Jonas Alaska - October tab

-------------------------------------------------------------------------------
                             October - Jonas Alaska
-------------------------------------------------------------------------------
Tabbed by: Jonas Gutvik Korssjøen
Email: jonasgutvik@gmail.com

This is my version of the song, inspired by his live performance on a TV2 show 
'Senkveld med Thomas og Harald'.
I think most of it is pretty accurate, at least from what I can hear.

Jonas Alaska plays it with capo on the 7th fret on the show mentioned above, but 
the studio version is played on the 5th fret.
Just pick the one that suits you :)

Tuning: Standard - [E,A,D,G,B,e]

Capo: 5th or 7th

************************************

| h   hammer-on

************************************

e|------------------------------------------------|
B|-------1-0---------------------1-0--------------|
G|-------------------2-0---------------------2-0--|  (Part A)  
D|----0-----------0-----------0-----------0-------|
A|------------------------------------------------|  Intro and chorus
E|-3-----3-----3-----2-----3-----3-----3-----2----|

e|----------------------------------------------|
B|-------1-0---------------------1-0------------|
G|-------------------2-0------------------------|  (Part B)
D|----0-----------0-----------0---------0-----0-|
A|-----------------------------------0-----2----|  Intro and chorus
E|-3-----3-----3-----2-----3-----3--------------|

e|------------------------------------------------|
B|----------1-----------------0-----------1-------|
G|----0-----------------0-----------0-----------0-|  (Part C)
D|----------------2-------------------------------|
A|-3-----------3-----3-----------------3-----3----|  Verse
E|-------3-----------------0-----0----------------|

e|----------------------------------------------|
B|-------1-0---------------------1-0------------|
G|-------------------2-0------------------------|  (Part B)
D|----0-----------0-----------0---------0-----0-|
A|-----------------------------------0-----2----|  Interlude
E|-3-----3-----3-----2-----3-----3--------------|

e|------------------------------------------------------------------------|
B|----------1-----------------------0-----------------------1-------------|
G|----0-----------------0-----0-----------------0-----0-----------------0-|  (Part D)
D|----------------2-----------------------2-----------------------2-------|
A|-3-----------3-----3-----------------------------3-----------3-----3----|  Verse
E|-------3-----------------0-----0-----0-----0-----------3----------------|

e|------------------------------------------------|
B|-------1-0---------------------1-0--------------|
G|-------------------2-0------------------0-------|  (Part E)
D|----0-----------0-----------0-----------------0-|
A|------------------------------------------------|  Interlude
E|-3-----3-----3-----2-----3-----3-----3-----3----|

e|----1-----------------------------------------------2----|
B|----------3-----------0-----1-----------1----------------|
G|----------------2-----------------2-----------0----------|
D|-0-----0-----0-----0-----------------------------0-----0-|
A|-------------------------0-----0-----0-----0-------------|
E|---------------------------------------------------------|

------------------------2-------------|
-1-----------0h1--------------1-----0-|
-------2----------2-------------------|  (Part F)
----0-----0----------0-----0-----0----|
--------------------------------------|  Verse/chorus
--------------------------------------|

e|----------0----------------------------------------------|
B|----0-----------------0-----3-----------------------1----|
G|----------------0-----------------4-----------0----------|
D|----------------------------------------4----------------|
A|-------------------------2-----2-----2-----2-----3-----3-|
E|-0-----0-----0-----0-------------------------------------|

---------------------------------------|
-------------------------1-------------|  
-------2-----------2-----------2-------|  (Part G)
-3-----------2-----------------------0-|
----3-----3-----3-----3-----3-----3----|  Verse/chorus
---------------------------------------|



This is the main loop of a verse and a chorus. Just start from the top again to continue the song.
When last verse if finished with Part G, go to the following part (Part H).

e|-----------------------------------------------------------|
B|-------1-0---------------------1-0---------------------1-0-|
G|-------------------2-0---------------------2-0-------------|
D|----0-----------0-----------0-----------0-----------0------|
A|-----------------------------------------------------------|
E|-3-----3-----3-----2-----3-----3-----3-----2-----3-----3---|

----------------------------------------1----|
--------------------------1-------------0----|
--------2-0-----------0-------0---------0----| (Part H)  
-----0------------2---------------2-----0----|
----------------------------------------2----| 
--3-----2-----3-------------------------3----|



That's the end of it, hope you enjoy!
Tap to rate this tab
 
# A B C D E F G H I J K L M N O P Q R S T U V W X Y Z