Song name
# A B C D E F G H I J K L M N O P Q R S T U V W X Y Z

Jonas Brothers - Weve Got The Party With Us tab

-------------------------------------------------------------------------------
	 WE'VE GOT THE PARTY - Jonas Brothers and Miley Cyrus
-------------------------------------------------------------------------------
Tabbed by:kaye
Email:kaynik94@comcast.net

Tuning:standard
*100% accurate!!!!also: the secound note in verses, you slide up to the next note.
listen to the song, you'll know what i mean. listen for strumming too.
intro: palm mute and strum
verse one:(kevin and nick are playing the same things in this song, just on
different beats.)
e|---------------------------------------------------------------------------|
B|---------------------------------------------------------------------------|
G|--------------------------------------7------------------------------------|
D|-5------------------------------------7---slide between here---------------|
A|-5------------------------------------5------------------------------------|
E|-3-------------------------------------------------------------------------|
  come on guys/ tell me what we're doin/were hanging round/ when we could be
 
e|---------------------------------------------------------------------------|
B|---------------------------------------------------------------------------|
G|------9--------3-----------------------------------------------------------|
D|------9--------5-----------------------x3----------------------------------|
A|------7--------3-----------------------------------------------------------|
E|---------------------------------------------------------------------------|
  all over the place/
the sun is shinin/jus the way we like it/let's get out of
this hallway/ show the world our face/
Pre-chorus:
e|---------------------------------------------------------------------------|
B|---------------------------------------------------------------------------|
G|-----------------------7---------------9-----------------------5-----------|
D|-----5-----------------7---------------9-----------------------5-----x2----|
A|-----5-----------------5---------------7-----------------------3-----------|
E|-----3---------------------------------------------------------------------|
it's friday but there's no where to go anywhee is cool/ cuz were not going home/ 
we can do amythng we wanna do/ it's all up to me and you/
chorus:
e|---------------------------------------------------------------------------|
B|---------------------------------------------------------------------------|
G|-----------------------7--------------------9----------------------5-------|
D|-----------5-----------7--------------------9----------------------5--x4---|
A|-----------5-----------5--------------------7----------------------3-------|
E|-----------3---------------------------------------------------------------|
  turn this park into a club/ the stars our light/ and the moon is a ball from 
above/ skateboard hills/ our ride so cool/ oh, look, everyone is waiting for 
us/anywhere we are/ any where we go/ every body knows/ we've got the party with
us/anywhere we are any where we go/ we got the party with us/
verse two:
e|---------------------------------------------------------------------------|
B|---------------------------------------------------------------------------|
G|--------------------------------------7------------------------------------|
D|-5------------------------------------7---slide between here---------------|
A|-5------------------------------------5------------------------------------|
E|-3-------------------------------------------------------------------------|
 radio/ let me be your dj/ i'll turn you up/ keep us movin/ 
e|---------------------------------------------------------------------------|
B|---------------------------------------------------------------------------|
G|------9--------3-----------------------------------------------------------|
D|------9--------5-----------------------x3----------------------------------|
A|------7--------3-----------------------------------------------------------|
E|---------------------------------------------------------------------------|
      till we're on a roll/
every one is dancin to thier own beat/ and letting go/ every body here's got 
soul/ 
Pre-chorus:
e|---------------------------------------------------------------------------|
B|---------------------------------------------------------------------------|
G|-----------------------7---------------9-----------------------5-----------|
D|-----5-----------------7---------------9-----------------------5-----x2----|
A|-----5-----------------5---------------7-----------------------3-----------|
E|-----3---------------------------------------------------------------------|
it's friday but there's no where to be/ we're kicking it together/ it's so 
good to be free/ we've got eachother and that's all we need/ the rest is up to 
you and me 
chorus:
e|---------------------------------------------------------------------------|
B|---------------------------------------------------------------------------|
G|-----------------------7--------------------9----------------------5-------|
D|-----------5-----------7--------------------9----------------------5--x4---|
A|-----------5-----------5--------------------7----------------------3-------|
E|-----------3---------------------------------------------------------------|
  turn this park into a club/ the stars our light/ and the moon is a ball from 
above/ skateboard hills/ our ride so cool/ oh, look, everyone is waiting for 
us/anywhere we are/ any where we go/ every body knows/ we've got the party with
us/anywhere we are any where we go/ we got the party with us/
Bridge:
e|---------------------------------------------------------------------------|
B|---------------------------------------------------------------------------|
G|---------------7-----------9------5--------x2------------------------------|
D|--5------------7-----------9------5----------------------------------------|
A|--5------------5-----------7------3----------------------------------------|
E|--3------------------------------------------------------------------------|
  life is for dreamers/ and i'm a believer/ that nothing can stand in our way
today/let's find a place to play/
chorus:
e|---------------------------------------------------------------------------|
B|---------------------------------------------------------------------------|
G|-----------------------7--------------------9----------------------5-------|
D|-----------5-----------7--------------------9----------------------5--x4---|
A|-----------5-----------5--------------------7----------------------3-------|
E|-----------3---------------------------------------------------------------|
  turn this park into a club/ the stars our light/ and the moon is a ball from 
above/ skateboard hills/ our ride so cool/ oh, look, everyone is waiting for 
us/anywhere we are/ any where we go/ every body knows/ we've got the party with
us/anywhere we are any where we go/ we got the party with us/
*fade the chorus

well, there it is! hope you loved it!!! peace out! luv, jonasgurl
Tap to rate this tab
# A B C D E F G H I J K L M N O P Q R S T U V W X Y Z