Song name
# A B C D E F G H I J K L M N O P Q R S T U V W X Y Z

Jonas Brothers - Kids Of The Future tab

Intro

e|-------------------------------|
b|-------------------------------|
g|-------------------------------|
d|-------------------------------|
a|---------------6-x10-----3-x10-|
e|--3-x10---1-x10---1-x10--------|

e|-------------------------------------------|
b|-------------------------------------------|
g|-----------------8-----------5------7------|
d|--5------3-------8-x5--3-----5-x10--7-x10--|
a|--5-x15--3-x10---6-----3-x5--3------5------|
e|--3------1-------------1-------------------|

Chorus

e|----------------------------------------------|
b|----------------------------------------------|
g|-8-----3-------8-----3-------8----------------|
d|-8-x5--3-x5----8-x5--3-x5----8-x5--3-----5----|
a|-6-----1-------6-----1-------6-----3-x5--5-x5-|
e|-----------------------------------1-----3----|


e|-------------------------------------------|
b|-------------------------------------------|
g|-----------------8-----------5-------------|
d|--5------3-------8-x5--3-----5-x5----------|
a|--5-x15--3-x10---6-----3-x5--3-------------|
e|--3------1-------------1-------------------|

e|-------------------------------------------|
b|-------------------------------------------|
g|-----------------8-----------5------7------|
d|--5------3-------8-x5--3-----5-x10--7-x10--|
a|--5-x15--3-x10---6-----3-x5--3------5------|
e|--3------1-------------1-------------------|

Chorus

e|----------------------------------------------|
b|----------------------------------------------|
g|-8-----3-------8-----3-------8----------------|
d|-8-x5--3-x5----8-x5--3-x5----8-x5--3-----5----|
a|-6-----1-------6-----1-------6-----3-x5--5----|
e|-----------------------------------1-----3----|


e|--------------------------------|
b|--------------------------------|
g|--------------5------8----------|
d|-5------3-----5-x5---8-x5-------|   x2
a|-5-x5---3-x5--3------6----------|
e|-3------1-----------------------|


e|-------------------------------------------|
b|-------------------------------------------|
g|-----------------8-----------5-------------|
d|--5------3-------8-x5--3-----5-x5----------|
a|--5-x15--3-x10---6-----3-x5--3-------------|
e|--3------1-------------1-------------------|

e|-------------------------------------------|
b|-------------------------------------------|
g|-----------------8-----------5------7------|
d|--5------3-------8-x5--3-----5-x10--7-x10--|
a|--5-x15--3-x10---6-----3-x5--3------5------|
e|--3------1-------------1-------------------|

Chorus

e|----------------------------------------------|
b|----------------------------------------------|
g|-8-----3-------8-----3-------8----------------|
d|-8-x5--3-x5----8-x5--3-x5----8-x5--3-----5----|
a|-6-----1-------6-----1-------6-----3-x5--5----|
e|-----------------------------------1-----3----|


e|--------------------------------|
b|--------------------------------|
g|--------------5------8----------|
d|-5------3-----5-x5---8-x5-------|   x2
a|-5-x5---3-x5--3------6----------|
e|-3------1-----------------------|

end

e|-------------------------|
b|-------------------------|
g|----------8---------5----|
d|-5--------8---------5----|  x4
a|-5--------6---------3----|
e|-3-----------------------|
Tap to rate this tab
# A B C D E F G H I J K L M N O P Q R S T U V W X Y Z