Song name
# A B C D E F G H I J K L M N O P Q R S T U V W X Y Z

Jonas Brothers - Video Girl tab

Hey. i know i haven't made any tabs in a while. they are kind of hard to figure out bcuz
figure them out by ear. So i HOPE this is right! tell me if u have any corrections. i
that there is only one other tab for this song and it's not very accurate so 
is mine! LISTEN FOR STRUMING PATERNS

INTRO (if you have 2 guitar players, one would continue playing the intro through out
song in the back round)
    d d d   d u d d d   d u d d d  d u d
e|---------------------------------------|
B|---------------------------------------|
G|--9-9-9---9-9-9-9-9---9-9-9-9-9--9-9-9-|
D|--9-9-9---9-9-9-9-9---9-9-9-9-9--9-9-9-|
A|--7-7-7---7-7-7-7-7---7-7-7-7-7--7-7-7-|
E|---------------------------------------|
 OMG DID U HEAR I'M DATING A JONAS BROTHER ITS SOOOOOO HOT!


VERSE: u can slide down for each chord
e|---------------------------------------------|
B|---------------------------------------------|
G|--9----7----5----4-------9----5----5----4----|
D|--9----7----5----4-------9----7----5----4----|
A|--7----5----3----2-------7----7----3----2----|
E|---------------------------------------------|

PRE CHORUS
e|----------------------------------------------------------------|
B|----------------------------------------------------------------|
G|---5----4----9----7----5~~~~------------------4~~~--------------|
D|---5----4----9----7----5~~~~------------------4~~~--------------|
A|---3----2----7----5----3~~~~------------------2~~~--------------|
E|----------------------------------------------------------------|
"well i've been...."  "this little thing...." "VIDEO GIRL!"

CHORUS
e|----------------------------------|
B|----------------------------------|
G|--9-9-9---------------------------|
D|--9-9-9---5-5-5---7-7-7---4-4-4---| x4
A|--7-7-7---5-5-5---7-7-7---4-4-4---|
E|----------3-3-3---5-5-5---2-2-2---|

POST CHORUS
   d d d    d d u d u d
e|-------------------------|
B|-------------------------|
G|-------------------------|
D|--2-2-2---2-2-2-2-2-2----| x2
A|--2-2-2---2-2-2-2-2-2----|
E|--0-0-0---0-0-0-0-0-0----|

REPEAT VERSE

REPEAT CHORUS

REPEAT POST CHORUS

BRIDGE
e|----------------------------------------------|
B|----------------------------------------------|
G|--9----5----4----8----9----5----4----8----9---|
D|--9----5----4----8----9----5----4----8----9---|
A|--7----3----2----6----7----3----2----6----7---|
E|----------------------------------------------|

I'm still trying to figure out the solo but for now, just play the chords from the chorus

THEN REPEAT CHORUS UNTIL SONG ENDS!!

END ON x799xx

hope u like it.
GIVE ME 5 STARZZ
Tap to rate this tab
 
# A B C D E F G H I J K L M N O P Q R S T U V W X Y Z