Song name
# A B C D E F G H I J K L M N O P Q R S T U V W X Y Z

Jonas Brothers - One Man Show tab

-------------------------------------------------------------------------------
			     One Man Show - Jonas Brothers 
-------------------------------------------------------------------------------
Tabbed by: ilyfudge
Email: ilyfudge@aim.com

Tuning: standard

	This is a pretty fun song to play.
	One of my favorites off their incredible 3rd album.
	Have fun!
	

Intro
e|---------------------------------|
B|---------------------------------|
G|---------------------------------|
D|--10-10---8-8---5-5---3-3---3/5--|
A|--10-10---8-8---5-5---3-3---3/5--|
E|--8--8----6-6---3-3---1-1---1/3--|

e|---------------------------------|
B|---------------------------------|
G|--8-8---10-10---8-8---12---------|
D|--8-8---10-10---8-8---12-x8------| x2
A|--6-6---8--8----6-6---10---------|
E|---------------------------------|

Verse
	"I feel like I'm gonna..."
e|---------------------------------|
B|---------------------------------|
G|--8-8---10-10-----------8--------|
D|--8-8---10-10---10-10---8-10-10--| x4
A|--6-6---8--8----10-10---6-10-10--|
E|----------------8--8------8--8---|

Chorus
	"I'm a one man show..."
e|------------------------------------------|
B|------------------------------------------|
G|--------------------10-------8------7-----|
D|---10-------8-------10-x16---8-x8---7-x8--| x2
A|---10-x16---8-x16---8--------6------5-----|
E|---8--------6-----------------------------|

Post Chorus
e|---------------------------------|
B|---------------------------------|
G|---------------------------------|
D|--10-10---8-8---5-5---3-3---3/5--|
A|--10-10---8-8---5-5---3-3---3/5--|
E|--8--8----6-6---3-3---1-1---1/3--|

e|---------------------------------|
B|---------------------------------|
G|--8-8---10-10---8-8---12---------|
D|--8-8---10-10---8-8---12-x8------| x2
A|--6-6---8--8----6-6---10---------|
E|---------------------------------|

Verse
	"Girl you broke my heart..."
e|---------------------------------|
B|---------------------------------|
G|--8-8---10-10-----------8--------|
D|--8-8---10-10---10-10---8-10-10--| x4
A|--6-6---8--8----10-10---6-10-10--|
E|----------------8--8------8--8---|

Chorus
	"I'm a one man show..."
e|------------------------------------------|
B|------------------------------------------|
G|--------------------10-------8------7-----|
D|---10-------8-------10-x16---8-x8---7-x8--| x2
A|---10-x16---8-x16---8--------6------5-----|
E|---8--------6-----------------------------|

Bridge
	"I was so blind..."
e|----------------------------------------|
B|----------------------------------------|
G|---5-------7-------8------7------5------|
D|---5-x16---7-x16---8-x8---7-x8---5-x16--|
A|---3-------5-------6------5------3------|
E|----------------------------------------|

e|-------------------------------------|
B|-------------------------------------|
G|---5-------7-------8------7------5~--|
D|---5-x16---7-x16---8-x8---7-x8---5~--|
A|---3-------5-------6------5------3~--|
E|-------------------------------------|

e|---------------|
B|---------------|
G|---------------|
D|---------------|(^=bend)
A|----------8~-6-|
E|---6^-6-4------|

Refrain
	"I'm a one man show..."
e|---------------------------------|
B|---------------------------------|
G|------------10-------8------7-7--|
D|---10-------10-x16---8-x8---7-7--|
A|---10-x24---8--------6------5-5--|
E|---8-----------------------------|
     pm-->
        
Chorus
	"I'm a one man show..."
e|------------------------------------------|
B|------------------------------------------|
G|--------------------10-------8------7-----|
D|---10-------8-------10-x16---8-x8---7-x8--| x3
A|---10-x16---8-x16---8--------6------5-----|
E|---8--------6-----------------------------|

Outro

e|-----------------------------------------|
B|-----------------------------------------|
G|-----------------------------------------|
D|--10-10---8-8---5-5---3-3---3/5---10-10--|
A|--10-10---8-8---5-5---3-3---3/5---10-10--|
E|--8--8----6-6---3-3---1-1---1/3---8--8---|


| /  slide up
| \  slide down
| h  hammer-on
| p  pull-off
| ~  vibrato
| +  harmonic
| x  Mute note
===============================================================================
Tap to rate this tab
 
# A B C D E F G H I J K L M N O P Q R S T U V W X Y Z