Guitaretab - guitar tabs
Song name
# A B C D E F G H I J K L M N O P Q R S T U V W X Y Z

Jonas Brothers - Shelf tab

INTRO:
e|-----------12--10-------------------------------------12--10------------------|
B|-------10-----------------------------------------10----------13--------------|
G|-9/10--------------11--1111h12--11--9------9/10------------------------------|
D|----------------------------------------12------------------------------------|
A|------------------------------------------------------------------------------|
E|------------------------------------------------------------------------------|

e|--------------------------------------------------------------------------------------|
B|-1111h12--11--9-----------------------------7h8--7--77h8----------------------------|
G|------------------12-------7--9--7-----7--9-----------------9--7----------------------|
D|----------------------7/9-----------8-----------------------------9--7----------------|
A|------------------------------------------------------------------------9--7--7--9----|
E|--------------------------------------------------------------------------------------|


VERSE:
e|--------------------------------------|
B|--------------------------------------|
G|--7-----------------------------------|
D|--7-x8---4------5------7------5-------| x2
A|--5------4-x8---5-x8---7-x3---5-x3----|
E|---------2------3------5------3-------|

e|-------------------------------------------------------------|
B|-------------------------------------------------------------|
G|-----------------------7------6------------------------------|
D|--4------9------7------7--x4--6--x4---9-------7-------5~~----|
A|--4-x8---9-x8---7-x8---5------4-------9--x4---7--x4---5~~----|
E|--2------7------5---------------------7-------5-------3~~----|

CHORUS:
e|--------------------------------------------------------------|
B|--------------------------------------------------------------|
G|--7------------------------------4-----------7----------------|
D|--7-x8--7-----8-----9-----10-----5-----5-----7-x8--7-7---5-5--| x2
A|--5-----7-x4--8-x4--9-x8--10-x8--5-x8--5-x8--5-----7-7---5-5--|
E|--------5-----6-----7-----8------3-----3-----------5-5---3-3--|
[ Tab from: http://www.guitaretab.com/j/jonas-brothers/113174.html ]
REPEAT VERSE

REPEAT CHORUS


BRIDGE
e|-----------------------------------------------|
B|-----------------------------------------------|
G|--5-5-5-5-----------7-7---6-6-7---7---7-9-7-6--|
D|--5-5-5-5--5-5-5-5--7-7---6-6-7---7---7-9-7-6--|
A|--3-3-3-3--5-5-5-5--5-5---4-4-5---5---5-7-5-4--|
E|-----------3-3-3-3-----------------------------|

e|-----------------------------------------------------|
B|-----------------------------------------------------|
G|--5-5-5-5-----------7-9-7-9-7-9\---------------------|
D|--5-5-5-5--5-5-5-5--7-9-7-9-7-9\----4-4-4--5~~--7~~--|
A|--3-3-3-3--5-5-5-5--5-7-5-7-5-7\----4-4-4--5~~--7~~--|
E|-----------3-3-3-3------------------2-2-2--3~~--5----|



AFTER BRIDGE CHORUS
e|------------------------------------------------------------------------|
B|----------------------------------------------7-8-7---------------------|
G|----------------------------------7------------------9-7----------------|
D|--------------------------5---5---7------7------------------9-----10----|
A|--5-x8--4-x8--2-x8--3-x8--5---5---5-x8---7-x3---------------9-x8--10-x3-|
E|--------------------------3---3----------5------------------7-----8-----|

e|---------------------------------------------------------------------------|
B|--7--8--7-----------------------------8--7-------------------------8--7----|
G|-----------9--7-----7--9--7-----7--9----------------------------7----------|
D|-----------------9-----------8---------------------7--9---7--9-------------|
A|---------------------------------------------7--9--------------------------|
E|---------------------------------------------------------------------------|

ENDING CHORUS: (strum eight for first 4 chords)
e|----------------------------15--14----------------|
B|------------------------------------15------------|
G|--7-------------------------------------12--11----|
D|--7---7---9---10---5------------------------------|
A|--5---7---9---10---5-x16--------------------------|
E|------5---7---8----3------------------------------|

Thanx  2 youtube users for posting videos to help me with this tab! Plz rate and 
I would like 5 stars! lol!
Related for Shelf tab