Song name
# A B C D E F G H I J K L M N O P Q R S T U V W X Y Z

Jonas Brothers - Got Me Going Crazy tab

Tabbed by: Jon4sluv3r

Tuning:Standard

Enjoy :)



INTRO/VERSE:
e|----------------------------------------------------|
B|----------------------------------------------------|
G|----------------------------------------------------|
D|----------------------------------------------------| x3
A|-----0-2---------0-3-2-----0-2---4-4-4-4-4-4-4------|
E|--2--------2--2---------2---------------------------|


CHORUS:
e|--------------------------------------------------|
B|--------------------------------------------------|
G|---7-7-7-7---------------9-9-9-9----9-7-6-6-------|
D|---7-7-7-7----7-7-7-7----9-9-9-9----9-7-6-6-------|x2
A|---5-5-5-5----7-7-7-7----7-7-7-7----7-5-4-4-------|
E|--------------5-5-5-5-----------------------------|

e|---------------------------------------------------------------------------|
B|---------------------------------------------------------------------------|
G|--6-6-6-6-------------8/9-9-9---9-7-6-6-4----4-6-4-6-4-6-4-2-2--6-4--------|
D|--6-6-6-6---7-7-7-7---8/9-9-9---9-7-6-6-4----4-6-4-6-4-6-4-2-2--6-4--6-4---|
A|--4-4-4-4---7-7-7-7---6/7-7-7---7-5-4-4-2----2-4-2-4-2-4-2-0-0--4-2--6-4---|
E|------------5-5-5-5--------------------------------------------------4-2---|
                                    i know that ^^^ up there it is hard to 
e|--14--------------------------|   slide up and down really fast so you 
B|------14--15------------------|   can just keep playing  x244xx. it's 
G|--------------13--14----------|   easier and probably sounds better :)
D|----------------------15--16--|
A|------------------------------|
E|------------------------------|

VERSE 2

e|----------------------------------------------------|
B|----------------------------------------------------|
G|----------------------------------------------------|
D|----------------------------------------------------| x2
A|-----0-2---------0-3-2-----0-2---4-4-4-4-4-4-4------|
E|--2--------2--2---------2---------------------------|


REPEAT CHORUS

BRIDGE

e|----------------------------------------------------|
B|----------------------------------------------------|
G|----------------------------------------------------|
D|----------------------------------------------------| x1
A|-----0-2---------0-3-2-----0-2---4-4-4-4-4-4-4------|
E|--2--------2--2---------2---------------------------|

e|----------------7--9-9--7---------------16---14----------------------------|
B|---------7----10----------------9-10-----------17--14---12-14--------------|
G|--7----9--------------------9-11-------------------------------------------|
D|---------------------------------------------------------------------------|
A|---------------------------------------------------------------------------|
E|---------------------------------------------------------------------------|

                               x2 means 2 sets of 3 up and down strokes
e|--------------------------------------------------------------------------|
B|---------------9-9--10-12-------------------------------------------------|
G|---9-9--11-11----------------6-----------8/9------------------------------|
D|-----------------------------6-x2---7----8/9x2----------------------------|
A|-----------------------------4------7x2--6/7-----------0-2--------0-3-2---|
E|------------------------------------5---------------2-------2--2----------|

e|------------------------------|
B|------------------------------|
G|------------------------------|
D|------------------------------|
A|-----0-2----4-4-4-4-4-4-4-----|
E|--2---------------------------|


END CHORUS:
e|-------------------------------------------|
B|-------------------------------------------|
G|---7-7------------9-9-9-9----9-7-6-6-------|
D|---7-7-----7-7----9-9-9-9----9-7-6-6-------|x1
A|---5-5-----7-7----7-7-7-7----7-5-4-4-------|
E|-----------5-5-----------------------------|

e|--------------------------------------------------|
B|--------------------------------------------------|
G|---7-7-7-7---------------9-9-9-9----9-7-6-6-------|
D|---7-7-7-7----7-7-7-7----9-9-9-9----9-7-6-6-------|x1
A|---5-5-5-5----7-7-7-7----7-7-7-7----7-5-4-4-------|
E|--------------5-5-5-5-----------------------------|

e|---------------------------------------------------------------------------|
B|---------------------------------------------------------------------------|
G|--6-6-6-6-------------8/9-9-9---9-7-6-6-4----4-6-4-6-4-6-4-2-2---6-4-------|
D|--6-6-6-6---7-7-7-7---8/9-9-9---9-7-6-6-4----4-6-4-6-4-6-4-2-2---6-4-------|
A|--4-4-4-4---7-7-7-7---6/7-7-7---7-5-4-4-2----2-4-2-4-2-4-2-0-0---4-2-------|
E|------------5-5-5-5--------------------------------------------------------|
                                       like above, you can just play x244x
                                       for the slide part ^ ^ ^
e|---------------------------------------------------------------|
B|---------------------------------------------------------------|
G|--2--6--4-----2--6--4-----2--4--4------------------------------|
D|--2--6--4-----2--6--4-----2--4--4--6---------------------------|
A|--0--4--2-----0--4--2-----0--6--2--6------0-2------0-3-2-------|
E|-----------------------------------4---2-------2-2-------------|

--jon4sluv3r



Tap to rate this tab
# A B C D E F G H I J K L M N O P Q R S T U V W X Y Z