Song name
# A B C D E F G H I J K L M N O P Q R S T U V W X Y Z

Jonas Brothers - Bb Good tab

Tabbed By: Jon4sLuv3r
Tuning: standard
This solo is after Joe says "i don't wanna hurt u. i wanna kiss u"

e|--14--10-------------------------------------------------------------------|
B|----------12--------------12--15-----10~~~--9~~~---------------------------|
G|------------------11--14-------------------------9~-7-9-7-9-7--------------|
D|--------------------------------------------------------------9------------|
A|---------------------------------------------------------------------------|
E|---------------------------------------------------------------------------|

e|-----------------------------------11~~--17-17-16-------------17-16----------19~~~--|
B|--------12-------12-------12----------------------17-14-17----------17-14-17--------|
G|--14-16----14-16----14-16----14-16--------------------------------------------------|
D|------------------------------------------------------------------------------------|
A|------------------------------------------------------------------------------------|
E|------------------------------------------------------------------------------------|

Tap to rate this tab
# A B C D E F G H I J K L M N O P Q R S T U V W X Y Z