Song name
# A B C D E F G H I J K L M N O P Q R S T U V W X Y Z

Jonas Brothers - Cant Have You tab

Tuning: Standard
Tabbed By: Jon4sLuv3r
This is the backround part for the bridge where i think the violin peoples are playing 
maybe it's guitar. idk
it's sounds pretty cool when u play while ur listening to the song.


Bridge
e|--10--9------10--9------12--9------12--9------14--12----------------|
B|---------10---------10---------10---------10----------10------------|
G|--------------------------------------------------------------------|
D|--------------------------------------------------------------------|
A|--------------------------------------------------------------------|
E|--------------------------------------------------------------------|

e|--14-15-14-12------9--7--5--6--7--9---------------------------|
B|---------------10---------------------------------------------|
G|--------------------------------------8-8-8-8-----------------|
D|--------------------------------------------------------------|
A|--------------------------------------------------------------|
E|--------------------------------------------------------------|

Then, pause for Nick when he says "Cause i'd give everything that i've..." start playing 
after "i've"

e|--12--9------12--9------14--12------14-15-14-12-----9--7--5----------5--4--5~~~--|
B|---------10---------10----------10--------------10----------------5--------------|
G|---------------------------------------------------------------2-----------------|
D|---------------------------------------------------------------------------------|
A|---------------------------------------------------------------------------------|
E|---------------------------------------------------------------------------------|

For the rest of the song, there are other tabs that have the full song so u can play those
Tap to rate this tab
 
# A B C D E F G H I J K L M N O P Q R S T U V W X Y Z