Song name
# A B C D E F G H I J K L M N O P Q R S T U V W X Y Z

Jonas Brothers - Live To Party tab

TUNING: STANDARD
Live to Party -- Jonas brothers Bonus track

no one made a tab for it so i did... it's pretty easy.

listen for strumming patterns

Chords used in song
     E        B      F#     G#     Em
e|----------------------------------------------|
B|----------------------------------------------|
G|----1-------4---------------------------------|
D|----2-------4------4------6-------2-----------| 
A|----2-------2------4------6-------2-----------|
E|-------------------2------4-------0-----------|



Intro:
E, B, F#  x2



Verse:
e|-------------------------------------|
B|-------------------------------------|
G|---1-1-----4-4-----------------------|
D|---2-2-----4-4-----4-4-----4-4-------| x4
A|---2-2-----2-2-----4-4-----4-4-------|
E|-------------------2-2-----2-2-------|



Chorus: listen for strumming patterns
e|--------------------------|
B|--------------------------|
G|---1----4-----------------|
D|---2----4----4----6-------| x2
A|---2----2----4----6-------|
E|-------------2----4-------|



Post Chorus:
E, B, F#  x2



Verse 2:
e|-------------------------------------|
B|-------------------------------------|
G|---1-1-----4-4-----------------------|
D|---2-2-----4-4-----4-4-----4-4-------| x4
A|---2-2-----2-2-----4-4-----4-4-------|
E|-------------------2-2-----2-2-------|



Chorus: listen for strumming patterns
e|--------------------------|
B|--------------------------|
G|---1----4-----------------|
D|---2----4----4----6-------| x2
A|---2----2----4----6-------|
E|-------------2----4-------|


Post Chorus:
E, B, F#  x2



Bridge:
e|------------------------|
B|------------------------|
G|------------------------|
D|---6----4----2----4-----| x2
A|---6----4----2----4-----|
E|---4----2----0----2-----|
 drove her home and then she whispered in my ear...........



Repeat Chorus many times
Tap to rate this tab
 
# A B C D E F G H I J K L M N O P Q R S T U V W X Y Z