Song name
# A B C D E F G H I J K L M N O P Q R S T U V W X Y Z

Jonas Brothers - Time For Me To Fly tab

Artist: Jonas Brothers
Title: Time Fo Mr To Fly
Album: It's About Time[2006]
Tuning: Standart


Intro
E|-------------------------------------------------------------|
B|-------------------------------------------------------------|
G|----------------7-7-7-7-77--9-9-99-99-99--5-5-55-55-55-------|
D|----5-5-5-5-55--7-7-7-7-77--9-9-99-99-99--5-5-55-55-55-------|x2
A|----5-5-5-5-55--5-5-5-5-55--7-7-77-77-77--3-3-33-33-33-------|
E|----3-3-3-3-33-----------------------------------------------|

Verse
E|-------------------------------------------------------------|
B|-------------------------------------------------------------|
G|----------------7-7-7-7-77--9-9-99-99-99--5-5-55-55-55-------|
D|----5-5-5-5-55--7-7-7-7-77--9-9-99-99-99--5-5-55-55-55-------|x2
A|----5-5-5-5-55--5-5-5-5-55--7-7-77-77-77--3-3-33-33-33-------|
E|----3-3-3-3-33-----------------------------------------------|

Chrous
E|--------------------------------------------------------------------------|
B|--------------------------------------------------------------------------|
G|---------------------7-7-7-7-7-7-7-7--9-9-9-9-9-9-9-9--5-5-5-5-5-5-5-5----|
D|----5-5-5-5-5-5-5-5--7-7-7-7-7-7-7-7--9-9-9-9-9-9-9-9--5-5-5-5-5-5-5-5----|x2
A|----5-5-5-5-5-5-5-5--5-5-5-5-5-5-5-5--7-7-7-7-7-7-7-7--3-3-3-3-3-3-3-3----|
E|----3-3-3-3-3-3-3-3-------------------------------------------------------|

Verse
E|-------------------------------------------------------------|
B|-------------------------------------------------------------|
G|----------------7-7-7-7-77--9-9-99-99-99--5-5-55-55-55-------|
D|----5-5-5-5-55--7-7-7-7-77--9-9-99-99-99--5-5-55-55-55-------|x2
A|----5-5-5-5-55--5-5-5-5-55--7-7-77-77-77--3-3-33-33-33-------|
E|----3-3-3-3-33-----------------------------------------------|

Chrous
E|--------------------------------------------------------------------------|
B|--------------------------------------------------------------------------|
G|---------------------7-7-7-7-7-7-7-7--9-9-9-9-9-9-9-9--5-5-5-5-5-5-5-5----|
D|----5-5-5-5-5-5-5-5--7-7-7-7-7-7-7-7--9-9-9-9-9-9-9-9--5-5-5-5-5-5-5-5----|x2
A|----5-5-5-5-5-5-5-5--5-5-5-5-5-5-5-5--7-7-7-7-7-7-7-7--3-3-3-3-3-3-3-3----|
E|----3-3-3-3-3-3-3-3-------------------------------------------------------|

Bridge
E|--------------------------------------------------------------------------|
B|--------------------------------------------------------------------------|
G|----5-5-5-5-5-5-5-5--7-7-7-7-7-7-7-7--9-9-9-9-9-9-9-9--5-5-5-5-5-5-5-5----|
D|----5-5-5-5-5-5-5-5--7-7-7-7-7-7-7-7--9-9-9-9-9-9-9-9--5-5-5-5-5-5-5-5----|
A|----3-3-3-3-3-3-3-3--5-5-5-5-5-5-5-5--7-7-7-7-7-7-7-7--3-3-3-3-3-3-3-3----|
E|--------------------------------------------------------------------------|

E|--------------------------------------------------------------------------|
B|--------------------------------------------------------------------------|
G|----5-5-5-5-5-5-5-5--7-7-7-7-7-7-7-7--9-9-9-9-9-9-9-9---------------------|
D|----5-5-5-5-5-5-5-5--7-7-7-7-7-7-7-7--9-9-9-9-9-9-9-9--5-5-5-5-5-5-5-5-5~-|
A|----3-3-3-3-3-3-3-3--5-5-5-5-5-5-5-5--7-7-7-7-7-7-7-7--5-5-5-5-5-5-5-5-5~-|
E|-------------------------------------------------------3-3-3-3-3-3-3-3-3~-|

E|-------------------------------|
B|-------------------------------|
G|-------------------------------|
D|----5-5-5-5-5-5-5-5-5-5-5-5----|
A|----5-5-5-5-5-5-5-5-5-5-5-5----|
E|----3-3-3-3-3-3-3-3-3-3-3-3----|

Chrous
E|--------------------------------------------------------------------------|
B|--------------------------------------------------------------------------|
G|---------------------7-7-7-7-7-7-7-7--9-9-9-9-9-9-9-9--5-5-5-5-5-5-5-5----|
D|----5-5-5-5-5-5-5-5--7-7-7-7-7-7-7-7--9-9-9-9-9-9-9-9--5-5-5-5-5-5-5-5----|x3
A|----5-5-5-5-5-5-5-5--5-5-5-5-5-5-5-5--7-7-7-7-7-7-7-7--3-3-3-3-3-3-3-3----|
E|----3-3-3-3-3-3-3-3-------------------------------------------------------|


I think it's correct... xD

Tap to rate this tab
# A B C D E F G H I J K L M N O P Q R S T U V W X Y Z