Song name
# A B C D E F G H I J K L M N O P Q R S T U V W X Y Z

Jonas Brothers - 6 Minutes tab

-------------------------------------------------------------------------------
			     SIX MINUTES - Jonas Brothers
-------------------------------------------------------------------------------
Tabbed by:kaye
Email:kaynik94@comcast.net

Tuning:standard
* take my word for it, this tab is perfect. i did not get this from any other site. 
for strumming and placement, and muting in the verses!!!
verse one:
e|---------------------------------------------------------------------------|
B|---------------------------------------------------------------------------|
G|---------------7--------9------5-------------------------------------------|
D|---5-----------7--------9------5----------------x2-------------------------|
A|---5-----------5--------7------3-------------------------------------------|
E|---3-----------------------------------------------------------------------|
  She's the kinda girl that ya see in the movie/ seen her in my dreams/ now she's
standing next to me/ down by the shore, first weekend of the summer/ gotta take
a chance and just ask for her number/ wish i had a song on mtv/ cuz in a crowded
room i'd been the only one she'd see/ this party's lame, and now i'm running out of
time/ i've only got six minutes if i'm gonna make her mine/
chorus:
e|---------------------------------------------------------------------------|
B|---------------------------------------------------------------------------|
G|---------------7--------9------5-------------------------------------------|
D|---5-----------7--------9------5----------------x2-------------------------|
A|---5-----------5--------7------3-------------------------------------------|
E|---3-----------------------------------------------------------------------|
one minute and the earth begins to shake/ two minutes and my heart begins to
break/ andother minute and she makes me feel brand new/ that's just three
minutes with you/ four minutes and she's every thing i see/ five minutes and she's
were i wanna be/ andother minute every thing just feels so new/ i need six minutes
with you/ six minutes/
Verse Two:
e|---------------------------------------------------------------------------|
B|---------------------------------------------------------------------------|
G|---------------7--------9------5-------------------------------------------|
D|---5-----------7--------9------5----------------x2-------------------------|
A|---5-----------5--------7------3-------------------------------------------|
E|---3-----------------------------------------------------------------------|
she's lookin at her watch while the dj is spinning/ this could be the end/ or
it's just the begining/ she's the kinda girl that i wanna know better/ she's
reaching for her keys, so i guess it's now or never/ i wish i was on the radio/ i'd
sing her favorite song/ she'd be front row at every show/ this parties lame and now
i'm running out of time/ i've only got six minutes if i'm gonna make her mine/
chorus:
e|---------------------------------------------------------------------------|
B|---------------------------------------------------------------------------|
G|---------------7--------9------5-------------------------------------------|
D|---5-----------7--------9------5----------------x2-------------------------|
A|---5-----------5--------7------3-------------------------------------------|
E|---3-----------------------------------------------------------------------|
one minute and the earth begins to shake/ two minutes and my heart begins to
break/ andother minute and she makes me feel brand new/ that's just three
minutes with you/ four minutes and she's every thing i see/ five minutes and she's
were i wanna be/ andother minute every thing just feels so new/ i need six minutes
with you/ six minutes/
Bridge:
e|---------------------------------------------------------------------------|
B|---------------------------------------------------------------------------|
G|----------7--------9----5------------7-----5-------------------------------|
D|---5------7--------9----5-----5------7-----5-------------------------------|
A|---5------5--------7----3-----5------5-----3-------------------------------|
E|---3--------------------------3--------------------------------------------|
  sometimes i feel just like the catcher in the rye
  trying hard just to catch her eye
  sometimes i wish i could be that guy ( that guy...that guy)
e|---------------------------------------------------------------------------|
B|---------------------------------------------------------------------------|
G|-5-----9-----5-------------------------------------------------------------|
D|-5-----9-----5-------------------------------------------------------------|
A|-3-----7-----3-------------------------------------------------------------|
E|---------------------------------------------------------------------------|
  yea... time is passing by i'm losing my  mind
  i need
e|---------------------------------------------------------------------------|
B|---------------------------------------------------------------------------|
G|----------------7--------------------5-------------------------------------|
D|-5--------------7--------------------5-------------------------------------|
A|-5--------------5--------------------3-------------------------------------|
E|-3-------------------------------------------------------------------------|
  1...2...3...4...5...6 minutes with you
chorus:
e|---------------------------------------------------------------------------|
B|---------------------------------------------------------------------------|
G|---------------7--------9------5-------------------------------------------|
D|---5-----------7--------9------5----------------x2-------------------------|
A|---5-----------5--------7------3-------------------------------------------|
E|---3-----------------------------------------------------------------------|
one minute and the earth begins to shake/ two minutes and my heart begins to
break/ andother minute and she makes me feel brand new/ that's just three
minutes with you/ four minutes and she's every thing i see/ five minutes and she's
were i wanna be/ andother minute every thing just feels so new/ i need six minutes
with you/ six minutes/

Hope Ya liked it!!!!! peace out and JB love!        ---jonasgurl
Tap to rate this tab
 
# A B C D E F G H I J K L M N O P Q R S T U V W X Y Z