Song name
# A B C D E F G H I J K L M N O P Q R S T U V W X Y Z

Jonas Brothers - Appreciate tab

                 --Appreciate by The Jonas Brothers--
                   --Tabbed by aBoVeAvErAgE x3--


This song is in 4/4 time so count 1,2,3,4,1,2,3,4,1,2,3,4 etc.


Intro

E------------------------------------------------]
B------------------------------------------------]
G---------2---------4---------6---------4--------]
D-------2---------4---------6---------4----------]
A---0-0-------2-2-------4-4-------2-2------------]
E------------------------------------------------]

E------------------------------------------------]
B------------------------------------------------]
G---------2---------4---------6---------4--------]
D-------2---------4---------6---------4----------]
A---0-0-------2-2-------4-4-------2-2------------]
E------------------------------------------------]


Verse 1

E------------------------------------------------]
B------------------------------------------------]
G---------2---------4---------6---------4--------]
D-------2---------4---------6---------4----------]
A---0-0-------2-2-------4-4-------2-2------------]
E------------------------------------------------]

E------------------------------------------------]
B------------------------------------------------]
G---------2---------4---------6---------4--------]
D-------2---------4---------6---------4----------]
A---0-0-------2-2-------4-4-------2-2------------]
E------------------------------------------------]


Pre-Chorus 1

E------------------------------------------------]
B------------------------------------------------]
G---------9-----9-9-----------9------------------]
D-------9---9-------9-9-----9-----9-9------------]
A---7-7-------7---------7-7-----7----------------]
E------------------------------------------------]
This part goes along with the words. Listen to
the song and you will hear.

Chorus 1

E------------------------------------------------]
B------------------------------------------------]
G---2-2-------4-4---------6-6-------4-4----------]
D---2-2-------4-4---------6-6-------4-4----------]
A---0-0-------2-2---------4-4-------2-2----------]
E------------------------------------------------]

E------------------------------------------------]
B------------------------------------------------]
G---2-2-------4-4---------6-6-------4-4----------]
D---2-2-------4-4---------6-6-------4-4----------]
A---0-0-------2-2---------4-4-------2-2----------]
E------------------------------------------------]

E------------------------------------------------]
B------------------------------------------------]
G---2-2-------4-4---------6-6-------4-4----------]
D---2-2-------4-4---------6-6-------4-4----------]
A---0-0-------2-2---------4-4-------2-2----------]
E------------------------------------------------]

E------------------------------------------------]
B------------------------------------------------]
G------------------------------------------------]
D------------------------------------------------]
A---7--6--4--2--0--------------------------------]
E------------------------------------------------]

Verse 2

E------------------------------------------------]
B------------------------------------------------]
G---------2---------4---------6---------4--------]
D-------2---------4---------6---------4----------]
A---0-0-------2-2-------4-4-------2-2------------]
E------------------------------------------------]

E------------------------------------------------]
B------------------------------------------------]
G---------2---------4---------6---------4--------]
D-------2---------4---------6---------4----------]
A---0-0-------2-2-------4-4-------2-2------------]
E------------------------------------------------]


Pre-Chorus 2

E------------------------------------------------]
B------------------------------------------------]
G---------9-----9-9-----------9------------------]
D-------9---9-------9-9-----9-----9-9------------]
A---7-7-------7---------7-7-----7----------------]
E------------------------------------------------]

Chorus 2

E------------------------------------------------]
B------------------------------------------------]
G---2-2-------4-4---------6-6-------4-4----------]
D---2-2-------4-4---------6-6-------4-4----------]
A---0-0-------2-2---------4-4-------2-2----------]
E------------------------------------------------]

E------------------------------------------------]
B------------------------------------------------]
G---2-2-------4-4---------6-6-------4-4----------]
D---2-2-------4-4---------6-6-------4-4----------]
A---0-0-------2-2---------4-4-------2-2----------]
E------------------------------------------------]

E------------------------------------------------]
B------------------------------------------------]
G---2-2-------4-4---------6-6-------4-4----------]
D---2-2-------4-4---------6-6-------4-4----------]
A---0-0-------2-2---------4-4-------2-2----------]
E------------------------------------------------]

E---------------------------------------------------]
B---------------------------------------------------]
G---------------------------------------------------]
D---------------------------------------------------]
A---7--6--4--2--0-----------------------------------]
E---------------------------------------------------]


Bridge

E------------------------------------------------]
B------------------------------------------------]
G---9-9-9-9-9-9-9-9--11-11-11-11-11-11-11-11-----]
D---7-7-7-7-7-7-7-7--9--9--9--9--9--9--9--9------]
A------------------------------------------------]
E------------------------------------------------]

E------------------------------------------------]
B------------------------------------------------]
G---13-13-13-13-13-13-13-13----------------------]
D---11-11-11-11-11-11-11-11----------------------]
A------------------------------------------------]
E------------------------------------------------]

E------------------------------------------------]
B------------------------------------------------]
G---11-11-11-11-11-11-11-11--9-------------------]
D---9--9--9--9--9--9--9--9---7-------------------]
A------------------------------------------------]
E------------------------------------------------]

E------------------------------------------------]
B---9--7-10--12-12-------------------------------]
G------------------------------------------------]
D------------------------------------------------]
A------------------------------------------------]
E------------------------------------------------]


During this brigde/chorus I like to do improvisation and for those of you who can't do 
you can just play what's below, which is just the regular chorus.

Chorus 3

E------------------------------------------------]
B------------------------------------------------]
G---2-2-------4-4---------6-6-------4-4----------]
D---2-2-------4-4---------6-6-------4-4----------]
A---0-0-------2-2---------4-4-------2-2----------]
E------------------------------------------------]

E------------------------------------------------]
B------------------------------------------------]
G---2-2-------4-4---------6-6-------4-4----------]
D---2-2-------4-4---------6-6-------4-4----------]
A---0-0-------2-2---------4-4-------2-2----------]
E------------------------------------------------]

E------------------------------------------------]
B------------------------------------------------]
G---2-2-------4-4---------6-6-------4-4----------]
D---2-2-------4-4---------6-6-------4-4----------]
A---0-0-------2-2---------4-4-------2-2----------]
E------------------------------------------------]

E------------------------------------------------]
B------------------------------------------------]
G------------------------------------------------]
D------------------------------------------------]
A---7--6--4--2--0----7--6--4--2--0---------------]
E------------------------------------------------]

That's It!!
Enjoy!
Tap to rate this tab
# A B C D E F G H I J K L M N O P Q R S T U V W X Y Z