Song name
# A B C D E F G H I J K L M N O P Q R S T U V W X Y Z

Jonas Brothers - Games tab

Help us improve GuitareTab! Take a short survey!
-------------------------------------------------------------------------------
			     Games - Jonas Brothers
-------------------------------------------------------------------------------
Tabbed by: Nikkar
Email: nik.karcher@yahoo.com

Games great song fun to play
ENJOY!

Tuning: Standard

 Intro:
e|-------------------------------------------|
B|-------------------------------------------|
G|------------66666666----------------x4-----|
D|--22222222--66666666--666666666666--x4x4x--| x2
A|--22222222--44444444--666666666666--x2x4x--|
E|--00000000------------444444444444----x2x--|

 Verse:
e|------------------------------------|
B|------------------------------------|
G|--6-6-6-6-6-6-6-6--4-4-4-4-4-4-4-4--|
D|--6-6-6-6-6-6-6-6--4-4-4-4-4-4-4-4--| x4
A|--4-4-4-4-4-4-4-4--2-2-2-2-1-1-2-2--|
E|------------------------------------|

Pre-Chorus:
e|--------------|
B|--------------|
G|--------------|
D|--4~~---------|
A|--4~~---------|
E|--2~~---------|

 Chorus:
e|-------------------------------------------|
B|-------------------------------------------|
G|------------66666666----------------x4-----|
D|--22222222--66666666--666666666666--x4x4x--| x4
A|--22222222--44444444--666666666666--x2x4x--|
E|--00000000------------444444444444----x2x--|

  
e|-------------------|
B|-------------------|
G|-------------------|
D|--2~~~~----4~~~~---| *after 4th time chorus
A|--2~~~~----4~~~~---|   is played. also you can either hold each note
E|--0~~~~----2~~~~---|     or continue to play through the notes.

 Verse:
e|------------------------------------|
B|------------------------------------|
G|--6-6-6-6-6-6-6-6--4-4-4-4-4-4-4-4--|
D|--6-6-6-6-6-6-6-6--4-4-4-4-4-4-4-4--| x4
A|--4-4-4-4-4-4-4-4--2-2-2-2-1-1-2-2--|
E|------------------------------------|

Pre-Chorus:
e|--------------|
B|--------------|
G|--------------|
D|--4~~---------|
A|--4~~---------|
E|--2~~---------|

 Chorus:
e|-------------------------------------------|
B|-------------------------------------------|
G|------------66666666----------------x4-----|
D|--22222222--66666666--666666666666--x4x4x--| x4
A|--22222222--44444444--666666666666--x2x4x--|
E|--00000000------------444444444444----x2x--|

  
e|-------------------|
B|-------------------|
G|-------------------|
D|--2~~~~----4~~~~---|
A|--2~~~~----4~~~~---|   
E|--0~~~~----2~~~~---|

 Bridge:
e|------------------------|
B|------------------------|
G|------------------------|
D|--222222222222222222----| repaeat as many times
A|--222222222222222222----|  as needed.
E|--000000000000000000----|

e|------------------------------------|
B|------------------------------------|
G|------------------------------------|
D|--22222222--44444444--55555555--6/--|
A|--22222222--44444444--55555555--6/--|
E|--00000000--22222222--33333333--4/--|

 Chorus:
e|-------------------------------------------|
B|-------------------------------------------|
G|------------66666666----------------x4-----|
D|--22222222--66666666--666666666666--x4x4x--| only once
A|--22222222--44444444--666666666666--x2x4x--|
E|--00000000------------444444444444----x2x--|

  
e|-------------------|
B|-------------------|
G|-------------------|
D|--2~~~~----4~~~~---|
A|--2~~~~----4~~~~---|   
E|--0~~~~----2~~~~---|

 Chorus:
e|-------------------------------------------|
B|-------------------------------------------|
G|------------66666666----------------x4-----|
D|--22222222--66666666--666666666666--x4x4x--| x3
A|--22222222--44444444--666666666666--x2x4x--|
E|--00000000------------444444444444----x2x--|

e|-------------------|
B|-------------------|
G|-------------------|
D|--2~~~~----4~~~~---| x3
A|--2~~~~----4~~~~---|   
E|--0~~~~----2~~~~---|

third time:
e|----------------------|
B|----------------------|
G|----------------------|
D|--2~~~~----4~~~~--6~~-|
A|--2~~~~----4~~~~--6~~-|   
E|--0~~~~----2~~~~--4~~-|

Lyrics:

I'm waiting for you right outside
The place we first locked eyes
(Oh..)
I feel like we're both loosing sight
We don't get to do this twice
And I wonder...

Will you care
When I'm gone
And it's done
And I've really had enough
And I'm sorry
For the trouble
Thats been costing us so much
Splitting apart, its getting harder to tell what you want
So bored with these games, games

The last time that I left these steps
Was after our first kiss
I wonder why you haven't shown
I'll be leaving here alone
And I wonder...

Will you care
When I'm gone
And it's done
And I've really had enough
And I'm sorry
For the trouble
Thats been costing us so much
Splitting apart, its getting harder to tell what you want
So bored with these games, games

I'm left in the dark
I never thought you would be breaking my heart
I'm so bored with these games, games

Will you care
When I'm gone
And it's done
And I've really had enough
And I'm sorry
For the trouble
Thats been costing us so much
Splitting apart, its getting harder to tell what you want
So bored with these games, games

Games, Games, Games


| /  slide up
| \  slide down
| h  hammer-on
| p  pull-off
| ~  vibrato
| x  harmonic
| *  Mute note
===============================================================================
Related for Games tab