Song name
# A B C D E F G H I J K L M N O P Q R S T U V W X Y Z

Jonas Brothers - Burnin Up tab

Song: Burnin Up
Aritst: Jonas Brothers
Tabber: Pocholo

It's my first time making a tab so go easy on me.
Here's Burnin Up by the Jonas Brothers.

The JoeBros plays it in standard, but I thought its easier with drop D.
So here it goes..


Verse:

"I'm hot.."  
e|-------------------------------------------|
B|-------------------------------------------|
G|--4---4-4---7---7-7------------------------|    
D|--4---4-4---7---7-7---7---7-7---5---5-5----|    
A|--2---2-2---5---5-5---7---7-7---5---5-5----|
E|----------------------7---7-7---5---5-5----|


Chorus:

"I'm slipping into the lava.."
e|--------------------------------|
B|--------------------------------|
G|--4------7----------------------|    
D|--4-x8---7-x8---7------5--------|    
A|--2------5------7-x8---5-x8-----|
E|----------------7------5--------|

Then the "Bur-nin-up" part.

e|-------------------------------|
B|-------------------------------|
G|-------------------------------|    
D|-------9--------7-------5------|  "for you baby.." 
A|-(BUR)-9--(NIN)-7--(UP)-5------|
E|-------9--------7-------5------|

Verse 2: 

"I fell.."
e|-------------------------------------------|
B|-------------------------------------------|
G|--4---4-4---7---7-7------------------------|    
D|--4---4-4---7---7-7---7---7-7---5---5-5----|    
A|--2---2-2---5---5-5---7---7-7---5---5-5----|
E|----------------------7---7-7---5---5-5----|

Chorus 2:

"I'm slipping into the lava.."

e|--------------------------------|
B|--------------------------------|
G|--4------7----------------------|    
D|--4-x8---7-x8---7------5--------|    
A|--2------5------7-x8---5-x8-----|
E|----------------7------5--------|

Bridge:

e|-------------------------------------------------|
B|-------------------------------------------------|
G|-------------------------------------------------|
D|---5--5-5--7--7-7--9--7--5---5--5-5--7--7-7--9---|
A|---5--5-5--7--7-7--9--7--5---5--5-5--7--7-7--9---|
E|---5--5-5--7--7-7--9--7--5---5--5-5--7--7-7--9---|

Then just repeat the chorus x2. I think?


LYRICS:

[Verse]
I'm hot 
You're cold
You go around 
Like you know 
Who I am
But you don't
You've got me, on my toes 

[Chorus]
I'm slipping into the lava                    
And I'm trying to keep from going under 
Baby
You turn the temperature hotter 
Cause I'm burning up 
Burning up 
For you baby

[Verse 2]
I fell(I fell..)
So fast(so fast..)
can't hold 
Myself, back 
High heels(high heels..) 
Red dress(red dress..) 
All by yourself 
Gotta catch my breath 


[Chorus]
I'm slipping into the lava 
And I'm trying to keep from going under 
Baby
You turn the temperature hotter 
Cause I'm burning up
Burning up 
For you baby

[Bridge]
I walk in the room                       
All I can see is you           
You're staring me down         
I know you feel it too 

(Chorus)
                  
I'm slipping into the lava 
And I'm trying to keep from going under 
Baby
You turn the temperature hotter 
Cause I'm burning up 
Burning up 
For you baby 







Tap to rate this tab
# A B C D E F G H I J K L M N O P Q R S T U V W X Y Z