Guitaretab - guitar tabs
Song name
# A B C D E F G H I J K L M N O P Q R S T U V W X Y Z

Jonas Brothers - Tonight tab

If you don't want to read the tabs I'll give you the powerchords
Intro: E B A
Verse 1:C# B A B-(Well here we are again...)
PreChorus:F# A slide to 1st fret-(We're fading fast...)
Chorus:E B A-(No we're not...)
Intro: E B A
Verse 2:C# B A B-(Every single words been said...)
PreChorus:F# A then slide to 1st fret-(We're breaking down...)
Chorus:E B A-(No we're not...)
Bridge:C# A F# B PALM MUTE-(We don't have to fight...)
Chorus:E B A-(No we're not...)
Outro:E B A B-(Well There's no need to fight...)

e---------------------------------------------------------------------|
B---------------------------------------------------------------------|
G-9-9-9-9-9-9---------------------------------------------------------|
D-9-9-9-9-9-9---9-9-9-9-9-9---7-7-7-7-7-7-7-7-7-7-7-7-----------------|
A-7-7-7-7-7-7---9-9-9-9-9-9---7-7-7-7-7-7-7-7-7-7-7-7-----------------|
E---------------7-7-7-7-7-7---5-5-5-5-5-5-5-5-5-5-5-5-----------------|

Verse 1:
Well here we are again...
e---------------------------------------------------------------------|
B---------------------------------------------------------------------|
G-6-6-6---4-4-4-------------------------------------------------------|
D-6-6-6---4-4-4---7-7-7-7-7-7---9-9-9---------------------------------|
A-4-4-4---2-2-2---7-7-7-7-7-7---9-9-9---------------------------------|
E-----------------5-5-5-5-5-5---7-7-7---------------------------------|

PreChorus:
We're fading fast...
e---------------------------------------------------------------------|
B---------------------------------------------------------------------|
G---------------------------------------------------------------------|
D-4-4-4-4-4-4-4-4-4-4---7-7-7-7-7-7-7-7-7-7---------------------------|
A-4-4-4-4-4-4-4-4-4-4---7-7-7-7-7-7-7-7-7-7---------------------------|
E-2-2-2-2-2-2-2-2-2-2---5-5-5-5-5-5-5-5-5-5\1-------------------------|

Chorus:
No we're are not...
e---------------------------------------------------------------------|
B---------------------------------------------------------------------|
G-9-9-9-9-9-9-9-9-----------------------------------------------------|
D-9-9-9-9-9-9-9-9---9-9-9-9-9-9-9-9---7-7-7-7-7-7-7-7-7-7-7-7-7-7-7-7-|
A-7-7-7-7-7-7-7-7---9-9-9-9-9-9-9-9---7-7-7-7-7-7-7-7-7-7-7-7-7-7-7-7-|
E-------------------7-7-7-7-7-7-7-7---5-5-5-5-5-5-5-5-5-5-5-5-5-5-5-5-|


Intro:

e---------------------------------------------------------------------|
B---------------------------------------------------------------------|
G-9-9-9-9-9-9---------------------------------------------------------|
D-9-9-9-9-9-9---9-9-9-9-9-9---7-7-7-7-7-7-7-7-7-7-7-7-----------------|
A-7-7-7-7-7-7---9-9-9-9-9-9---7-7-7-7-7-7-7-7-7-7-7-7-----------------|
E---------------7-7-7-7-7-7---5-5-5-5-5-5-5-5-5-5-5-5-----------------|
[ Tab from: http://www.guitaretab.com/j/jonas-brothers/175752.html ]
Verse 2:
Every single words been said...
e---------------------------------------------------------------------|
B---------------------------------------------------------------------|
G-6-6-6---4-4-4-------------------------------------------------------|
D-6-6-6---4-4-4---7-7-7-7-7-7---9-9-9---------------------------------|
A-4-4-4---2-2-2---7-7-7-7-7-7---9-9-9---------------------------------|
E-----------------5-5-5-5-5-5---7-7-7---------------------------------|

PreChorus:
We're breaking down...
e---------------------------------------------------------------------|
B---------------------------------------------------------------------|
G---------------------------------------------------------------------|
D-4-4-4-4-4-4-4-4-4-4---7-7-7-7-7-7-7-7-7-7---------------------------|
A-4-4-4-4-4-4-4-4-4-4---7-7-7-7-7-7-7-7-7-7---------------------------|
E-2-2-2-2-2-2-2-2-2-2---5-5-5-5-5-5-5-5-5-5\1-------------------------|

Chorus:
No we're not...
e---------------------------------------------------------------------|
B---------------------------------------------------------------------|
G-9-9-9-9-9-9-9-9-----------------------------------------------------|
D-9-9-9-9-9-9-9-9---9-9-9-9-9-9-9-9---7-7-7-7-7-7-7-7-7-7-7-7-7-7-7-7-|
A-7-7-7-7-7-7-7-7---9-9-9-9-9-9-9-9---7-7-7-7-7-7-7-7-7-7-7-7-7-7-7-7-|
E-------------------7-7-7-7-7-7-7-7---5-5-5-5-5-5-5-5-5-5-5-5-5-5-5-5-|

Bridge:
PALM MUTE:We don't have to fight...
e-----------------------------------------------------------------------|
B-----------------------------------------------------------------------|
G-6-6-6-6-6-6-6-6---------------------------------------4-4-4-4-4-4-4-4-|
D-6-6-6-6-6-6-6-6---7-7-7-7-7-7-7-7---4-4-4-4-4-4-4-4---4-4-4-4-4-4-4-4-|
A-4-4-4-4-4-4-4-4---7-7-7-7-7-7-7-7---4-4-4-4-4-4-4-4---2-2-2-2-2-2-2-2-|
E-------------------5-5-5-5-5-5-5-5---2-2-2-2-2-2-2-2-------------------|

Chorus:
No we're not...
e---------------------------------------------------------------------|
B---------------------------------------------------------------------|
G-9-9-9-9-9-9-9-9-----------------------------------------------------|
D-9-9-9-9-9-9-9-9---9-9-9-9-9-9-9-9---7-7-7-7-7-7-7-7-7-7-7-7-7-7-7-7-|
A-7-7-7-7-7-7-7-7---9-9-9-9-9-9-9-9---7-7-7-7-7-7-7-7-7-7-7-7-7-7-7-7-|
E-------------------7-7-7-7-7-7-7-7---5-5-5-5-5-5-5-5-5-5-5-5-5-5-5-5-|

Outro:
Well There's no need to fight...
e-----------------------------------------------------------------------|
B-----------------------------------------------------------------------|
G-9-9-9-9-9-9-----------------------------------------------------------|
D-9-9-9-9-9-9---9-9-9-9-9-9---7-7-7-7-7-7-7-7-7-7-7-7---9---------------|
A-7-7-7-7-7-7---9-9-9-9-9-9---7-7-7-7-7-7-7-7-7-7-7-7---9---------------|
E---------------7-7-7-7-7-7---5-5-5-5-5-5-5-5-5-5-5-5---7---------------|
Related for Tonight tab