Guitaretab - guitar tabs
Song name
# A B C D E F G H I J K L M N O P Q R S T U V W X Y Z

Jonas Brothers - Superstition tab

-------------------------------------------------------------------------------
			     SUPERSTITION - Jonas Brothers
-------------------------------------------------------------------------------


Tuning: Standard (EADGBe)

i wanted to tab out their version, because it is a little bit different than stevie wonders
[ Tab from: http://www.guitaretab.com/j/jonas-brothers/176969.html ]
   Verses (repeats multiple times)
e|---------------------------------------------------------------------------|
B|---------------------------------------------------------------------------|
G|---------------------------------------------------------------------------|
D|---------------------------5-------------------------5---------------------|
A|------5h7--------7--5--7------7----5h7--------5--7------7------------------|
E|-------------0---------------------------0--7------------------------------|



    Chorus  (when you believe in things...) 
e|---------------------------------------------------------------------------|
B|---------------------------------------------------------------------------|
G|--------------------1---5\-------------------------------------------------|
D|----5---6---5---3---2---5\-------------------------------------------------|
A|----5---6---5---3---2---3\-------------------------------------------------|
E|----3---4---3---1---0------------------------------------------------------|


this is a very simple but cool song. enjoy and comment if you have any corrections. :)


| /  slide up
| \  slide down
| h  hammer-on
| p  pull-off
| ~  vibrato
| +  harmonic
| x  Mute note
===============================================================================
Related for Superstition tab