Song name
# A B C D E F G H I J K L M N O P Q R S T U V W X Y Z

Jonas Brothers - Live To Party Acoustic tab

Help us improve GuitareTab! Take a short survey!
-------------------------------------------------------------------------------
			     Live to Party (Acoustic) - Jonas Brothers
-------------------------------------------------------------------------------
Tabbed by: Tizrulingzworld
Pronounced: T is ruling the world

Tuning:Standard

This is my first tab, and i know this is how jb played it at the Radio Disney Takeover 
but im not positive about the bridge, so constructive critisism is greatly appreciated

 INTRO (play twice)
e|---------------------------------------------------------------------------|
B|---------------------------------------------------------------------------|
G|---6/7-----------------------8/9-------------------------------------------|
D|---6/7---x2-----6/7----------8/9---x4--------------------------------------|
A|---4/5----------6/7---x2-----6/7-------------------------------------------|
E|----------------4/5--------------------------------------------------------|

VERSE (play 4x) - For the verse, you may or may not want to play it with the slide - if 
do, play the intro for the length of the verse, otherwise play the following (listen to 
version for strumming):

e|---------------------------------------------------------------------------|
B|---------------------------------------------------------------------------|
G|---5---------------9-------------------------------------------------------|
D|---5--x4---5-------9---x8--------------------------------------------------|
A|---7-------5--x4---7-------------------------------------------------------|
E|-----------7---------------------------------------------------------------|

CHORUS (play twice) - same as verse with a more continuous strum

TNTRO (play twice)

VERSE (play 4x)

CHORUS (play 4x)

BRIDGE
e|---------------------------------------------------------------------------|
B|---------------------------------------------------------------------------|
G|-------------9---------7---------------------------------------------------|
D|---7---------9---x4----7---x4----7-----------------------------------------|
A|---7---x4----7---------5---------7---x4------------------------------------|
E|---5-----------------------------5-----------------------------------------|

e|---------------------------------------------------------------------------|
B|---------------------------------------------------------------------------|
G|-------------9--------7----------------------------------------------------|
D|---7---------9---x4---7---x8-----------------------------------------------|
A|---7---x4----7--------5----------------------------------------------------|
E|---5-----------------------------------------------------------------------|

CHORUS (play 6x)

OUTRO - same as CHORUS, but let the chords ring
e|---------------------------------------------------------------------------|
B|---------------------------------------------------------------------------|
G|---7---------------------------------9-------------------------------------|
D|---7---(let ring)---7----------------9-(let ring)--------------------------|
A|---5----------------7---(let ring)---7-------------------------------------|
E|--------------------5------------------------------------------------------|


| /  slide up
| \  slide down
| h  hammer-on
| p  pull-off
| ~  vibrato
| +  harmonic
| x  Mute note
===============================================================================
Related for Live To Party Acoustic tab