Song name
# A B C D E F G H I J K L M N O P Q R S T U V W X Y Z

Jonas Brothers - Bb Good tab

Hi..this is my first tab..this is the solo from BB Good by the Jonas Brothers..please 
and comment!

e--10--12^-10~--------------------------------|
B--------------12~----------12~--15^----------|
G------------------14p11h14-------------------|
D---------------------------------------------|
A---------------------------------------------|
E---------------------------------------------|

e---------------------------------------------|
B--------PLAYED-VERY-FAST---------------------|
G-------14p11h14p11---13p10h13p10-------------|
D---------------------------------------------|
A---------------------------------------------|
E---------------------------------------------|

e---------------------------------------------|
B-------PLAYED-VERY-FAST----------------------|
G--9^7-9-7-9-7--------------------------------|
D-------------9~------------------------------|
A---------------------------------------------|
E---------------------------------------------|

e-------10-------10-------10-------12^--------|
B--10h12----10h12----10h12----10h12-----------|
G---------------------------------------------|
D---------------------------------------------|
A---------------------------------------------|
E---------------------------------------------|

e--17-17-16-16-------17p16p14----------17~----|
B--------------15h16----------17p14h15--------|
G---------------------------------------------|
D---------------------------------------------|
A---------------------------------------------|
E---------------------------------------------|
Tap to rate this tab
# A B C D E F G H I J K L M N O P Q R S T U V W X Y Z