Guitaretab - guitar tabs
Song name
# A B C D E F G H I J K L M N O P Q R S T U V W X Y Z

Jonas Brothers - Turn Right tab

hey guys,
this is my very first tab...
this is one of the jonas brothers new songs of their record coming out june 16 lines 
and trying times
i've heard that alot of people want to learn how to play this song so here it is....not 
if its 100% correct but its close enough :)

for a video of me playing the song go to my youtube channel xsuperxjessx

Jonas Brothers: Turn Right
Tabbed By: nick4president

verse
[ Tab from: http://www.guitaretab.com/j/jonas-brothers/187973.html ]
e|-----------------------------------3---------|
B|-------3--------------3---------------3------|
G|-----0-------------2-------------------------|
D|----------------0---------0--2---------------|
A|---2------3----------------------------------|
E|---------------------------------------------|
played 2x for intro, 4x for verse, 3x for chorus, 1x for outro

This is repeated throughout the song

chorus changes on third time!

e|-----------------------------------3---------|
B|-------3--------------3---------------3------|
G|-----0-------------2------------------0------|
D|----------------0---------0--2---------------|
A|---2------3----------------------------------|
E|---------------------------------------------|

hope you enjoyed the tab
peace love jonas
thanks :)
Related for Turn Right tab