Guitaretab - guitar tabs
Song name
# A B C D E F G H I J K L M N O P Q R S T U V W X Y Z

Jonas Brothers - Dont Charge Me For The Crime tab

-------------------------------------------------------------------------------
			     SONG NAME Don’t Charge me for the crime
 - Band Name Jonas Brothers
-------------------------------------------------------------------------------
Tabbed by: elvincenzo
Email: Vincenzo_socageeni@hotmail.com

My first tab on here so yeah

Tuning: standard

Bass intro

e|------------------------------------------------------------------------|
B|------------------------------------------------------------------------|
G|------------------------------------------------------------------------|
D|------------------------------------------------------------------------x2
A|----------2-2---2----------------2-2---2---------------2-2-0-2-3-3-2-2~-|
E|-0-0--0-3---------3--0-0-----0-3---------3--0-0----0--3-----------------|

Verse

e|--------------------------------------|
B|--------------------------------------|
G|--------------------------------------|
D|---2--2---5--5---7--7---10-10-9-9--x4-|
A|---2--2---5--5---7--7---10-10-9-9-----|
E|---0--0---3--3---5--5---8--8--7-7-----|


Chorus
Is just the intro bass riff on guitar using power chords will a simple fill 
[ Tab from: http://www.guitaretab.com/j/jonas-brothers/188499.html ]
“don’t charge me for the……”
e|--------------------------------------------------|
B|------17-17-17---17-17-17---17-17-17—-17~~~~~~----|
G|----19---------19---------19----------------------|
D|--------------------------------------------------|
A|--------------------------------------------------|
E|--------------------------------------------------|

“don’t charge me for the……”
e|---------------------------------------------------|
B|--------17-17-17---17-17-17---17-17-17—-20~~~~~~~~~|
G|------19---------19---------19---------------------|
D|---------------------------------------------------|
A|---------------------------------------------------|
E|---------------------------------------------------|

Order:
Intro
verse
chorus
Verse
Chorus
Verse
Chorus
Rap part use the bass intro
Verse
bridge
Then outro plus solo (sort of the same bit)

(x7 means play that note 7 times)
bridge
e|-----------------------------------------------------------------|
B|--20-x7-19-x7--17-x7-15-x7-12-x-7--10-x-7—8-x7------5---3----5---|
G|-----------------------------------------------------------------|
D|-----------------------------------------------------------------|
A|-----------------------------------------------------------------|
E|-----------------------------------------------------------------|

Then its just the chords and the fill mashed together sort of until end just play around with it
Have Fun


Related for Dont Charge Me For The Crime tab