Guitaretab - guitar tabs
Song name
# A B C D E F G H I J K L M N O P Q R S T U V W X Y Z

Jonas Brothers - World War Iii tab

			World War III  Jonas Brothers

Really fun song to play :D
Leave a comment if you have any corrections.

Intro:
e|------------------------------------------------|
B|------------------------------------------------|
G|-444-44-4-444-44-4--------------------------3/4-|
D|-444-44-4-444-44-4-222-22-2-222-22-2-55-5/4-3/4-| x2
A|-222-22-2-222-22-2-222-22-2-222-22-2-55-5/4-1/2-|
E|-------------------000-00-0-000-00-0-33-3/2-----|

Verse:
e|-------------------------------------------------------------|     
B|-------------------------------------------------------------|     
G|-----3/4-----3/4-----3/4-----3/4-----3/4-----3/4-----3/4-----|     
D|-5\4-3/4-5\4-3/4-5\4-3/4-5\4-3/4-5\4-3/4-5\4-3/4-5\4-3/4-5\4-| 
A|-5\4-1/2-5\4-1/2-5\4-1/2-5\4-1/2-5\4-1/2-5\4-1/2-5\4-1/2-5\4-|     
E|-3\2-----3\2-----3\2-----3\2-----3\2-----3\2-----3\2-----3\2-|     

Pre-chorus:
e|--------------|
B|--------------|
G|--------------|
D|-2~-5~-2~-5-7-| 
A|-2~-5~-2~-5-7-|
E|-0~-3~-0~-3-5-|

Chorus:
e|------------------------------------------------|
B|------------------------------------------------|
G|-444-44-4-444-44-4--------------------------3/4-|
D|-444-44-4-444-44-4-222-22-2-222-22-2-55-5/4-3/4-| x2
A|-222-22-2-222-22-2-222-22-2-222-22-2-55-5/4-1/2-|
E|-------------------000-00-0-000-00-0-33-3/2-----|
[ Tab from: http://www.guitaretab.com/j/jonas-brothers/188736.html ]
Post-Chorus:
e|------------------------------------------------|
B|------------------------------------------------|
G|-444-44-4-444-44-4--------------------------3/4-|
D|-444-44-4-444-44-4-222-22-2-222-22-2-55-5/4-3/4-| x2
A|-222-22-2-222-22-2-222-22-2-222-22-2-55-5/4-1/2-|
E|-------------------000-00-0-000-00-0-33-3/2-----|

Verse:
e|---------------------------------|     
B|---------------------------------|     
G|-----3/4-----3/4-----3/4-----3/4-|     
D|-5\4-3/4-5\4-3/4-5\4-3/4-5\4-3/4-| 
A|-5\4-1/2-5\4-1/2-5\4-1/2-5\4-1/2-|     
E|-3\2-----3\2-----3\2-----3\2-----|     

Chorus:
e|------------------------------------------------|
B|------------------------------------------------|
G|-444-44-4-444-44-4--------------------------3/4-|
D|-444-44-4-444-44-4-222-22-2-222-22-2-55-5/4-3/4-| x2
A|-222-22-2-222-22-2-222-22-2-222-22-2-55-5/4-1/2-|
E|-------------------000-00-0-000-00-0-33-3/2-----|

Bridge:
e|------------------------------------|
B|------------------------------------|
G|----------------44-44-4\333---------|
D|-2~-5~-2~-55-77-44-44-4\333-5\4\3/8-|
A|-2~-5~-2~-55-77-22-22-2\111-5\4\3/8-|
E|-0~-3~-0~-33-55--------------\2\1/6-|

Chorus:
e|----------------------------------------|
B|----------------------------------------|
G|-444-44-4-444-44-4------------------3/4-|
D|-444-44-4-444-44-4-222-22-2-555-5/4-3/4-| x2
A|-222-22-2-222-22-2-222-22-2-555-5/4-1/2-|
E|-------------------000-00-0-335-3/2-----|

Outro: (Idk about this bit.)
e|------------------------------------------------------------------|
B|------------------------------------------------------------------|
G|-444-44-4-444-44-4-------------------------------------4-4/6-4-44-|
D|-444-44-4-444-44-4-222-22-2-555-5\4-55-5\4-55-5/7-55-5-4-4/6-4-44-| 
A|-222-22-2-222-22-2-222-22-2-555-5\4-55-5\4-55-5/7-55-5-2-2/6-2-22-|
E|-------------------000-00-0-333-3\2-33-3\2-33-3/5-33-3------------|
Related for World War Iii tab