Guitaretab - guitar tabs
Song name
# A B C D E F G H I J K L M N O P Q R S T U V W X Y Z

Jonas Brothers - Fly With Me tab

----------------------------------------------------------------------------
			     FLY WITH ME - Jonas Brothers
                                     SOLO TAB
----------------------------------------------------------------------------
Tabbed by:XxGUITARZER0xX
Email:Spongebobs400s@hotmail.com

Tuning:Standard



This was tabbed out by ear. This is 100% correct if played in the proper manner.

Video of Solo By Me -----> http://www.youtube.com/watch?v=aiIulciA-f8 
Right there watch it to perfect the solo.
[ Tab from: http://www.guitaretab.com/j/jonas-brothers/189125.html ]
e|-----------------------------------|
B|------------------------10---------|
G|---------------------11----9b11r9--|
D|------12p11-12p11------------------|
A|-20/--------------12---------------|
E|-----------------------------------|

E|----------------------------------------------------------------|
B|-------------------12-----------------------------------7---17~-|
G|----------------11----9b11r9-7----------------------7-9---------|
D|-12p11-12p11-------------------9--7h9p7-5-4-----7-9-------------|
A|-------------12-----------------------------6/9-----------------|
E|----------------------------------------------------------------|

/ = a slide
~ = Vibrato = wiggle your finger on the fret to make the sound different.
p = pull off
h = hammeron 
b = bend
r = release bend



Copyright - Me (XxGUITARZER0xX)
Related for Fly With Me tab