Guitaretab - guitar tabs
Song name
# A B C D E F G H I J K L M N O P Q R S T U V W X Y Z

Jonas Brothers - Hey Baby tab

this is my first tab so plz rate and comment corrections but im pretty sure this is right


e|------------------------------------------------|
B|------------------------------------------------|
G|---4---4----------------------------------------|x5
D|---4---4-4---4/5--------------------------------|
A|---2---2-4---4/5--------------------------------|
E|---------2---2/3--------------------------------|
Yeah

Hey baby, why you treatin' me bad?
Hey darlin', now you're makin' me mad
I'm going crazy trying to figure out
Why you are

e|------------------------------------------------|
B|------------------------------------------------|
G|------------------------------------------------|
D|---2---4-4--------------------------------------|
A|---2---4-4----022022022022022022022-------------|
E|-------2-2-------------------------2------------|
leavin'
Give me a reason

Say that you need me
I know you deceive me
The lies that you feed me i'll leave you alone
[ Tab from: http://www.guitaretab.com/j/jonas-brothers/190134.html ]
e|------------------------------------------------|
B|------------------------------------------------|
G|---4--2-----------------------------------------|
D|---4--2-5/4-------------------------------------| x2
A|---2----5/4-------------------------------------|
E|--------3/2-------------------------------------|


Please don't ask me to go
I'm already gone
I'm already gone
Please just leave me alone
I'm already gone
I'm already gone

e|------------------------------------------------|
B|------------------------------------------------|
G|---4---4----------------------------------------|x3
D|---4---4-4---4/5--------------------------------|
A|---2---2-4---4/5--------------------------------|
E|---------2---2/3--------------------------------|
Hey baby,
What's the matter with you?
Hey darlin'
No your love isn't true
Goin' crazy
Tryin' to figure out
Why you are


and it follows this pattern throuout the whole song with those three parts , this is my 
tab so plz rate and comment
Related for Hey Baby tab