Guitaretab - guitar tabs
Song name
# A B C D E F G H I J K L M N O P Q R S T U V W X Y Z

Jonas Brothers - What Did I Do To Your Heart tab

            Jonas Brothers - What Did I Do To Your Heart

Very fun song to play :D
Chuck between the chords for a better effect and to keep in time.
Leave a comment if you have any corrections!

Intro:
e|--------------------------------------|
B|--------------------------------------|
G|-99-9-99-9-99-9-99-9------------------|
D|-99-9-99-9-99-9-99-9-77-7-77-7-77-7-7-|
A|-77-7-77-7-77-7-77-7-77-7-77-7-77-7-7-| 
E|---------------------55-5-55-5-55-5-5-|

Verse:
e|-------------------------------|    |--------|
B|-------------------------------|    |--------|
G|-99-9-99-9-99-9-99-9-----------|    |--------|
D|-99-9-99-9-99-9-99-9-77-7-77-7-| x2 |-77-7-7-|
A|-77-7-77-7-77-7-77-7-77-7-77-7-|    |-77-7-7-|
E|---------------------55-5-55-5-|    |-55-5-5-|

Chorus:
e|-0~-0~-0~-0~-|
B|-0~-0~-0~-0~-|
G|-9~-9~-0~-0~-|
D|-9~-9~-7~-7~-| x2
A|-7~-7~-7~-7~-|
E|-------5~-5~-|

Post-chorus:
e|--------------------------------------|
B|--------------------------------------|
G|-99-9-99-9-99-9-99-9------------------|
D|-99-9-99-9-99-9-99-9-77-7-77-7-77-7-7-|
A|-77-7-77-7-77-7-77-7-77-7-77-7-77-7-7-| 
E|---------------------55-5-55-5-55-5-5-|
[ Tab from: http://www.guitaretab.com/j/jonas-brothers/190443.html ]
Verse:
e|-------------------------------|    |--------|
B|-------------------------------|    |--------|
G|-99-9-99-9-99-9-99-9-----------|    |--------|
D|-99-9-99-9-99-9-99-9-77-7-77-7-| x2 |-77-7-7-|
A|-77-7-77-7-77-7-77-7-77-7-77-7-|    |-77-7-7-|
E|---------------------55-5-55-5-|    |-55-5-5-|

Chorus:
e|-0~-0~-0~-0~-|
B|-0~-0~-0~-0~-|
G|-9~-9~-0~-0~-|
D|-9~-9~-7~-7~-| x2
A|-7~-7~-7~-7~-|
E|-------5~-5~-|

Bridge:
e|---------------------------------------------------|
B|---------------------------------------------------|
G|-999999999999999999999999--------------------------|
D|-999999999999999999999999-777777777777777777777777-|
A|-777777777777777777777777-777777777777777777777777-| 
E|--------------------------555555555555555555555555-|

Chorus:
e|---------------------------------------------------|
B|---------------------------------------------------|
G|-999999999999999999999999--------------------------|
D|-999999999999999999999999-777777777777777777777777-| x2
A|-777777777777777777777777-777777777777777777777777-|
E|--------------------------555555555555555555555555-|

Outro:
e|--------------------------------------------|
B|--------------------------------------------|
G|-999999999999999999999999--------------9-9~-|
D|-999999999999999999999999-777777777777-9-9~-| 
A|-777777777777777777777777-777777777777-7-7~-|
E|--------------------------555555555555------|
Related for What Did I Do To Your Heart tab