Guitaretab - guitar tabs
Song name
# A B C D E F G H I J K L M N O P Q R S T U V W X Y Z

Jonas Brothers - Take A Breath tab

                    Take A Breath  Jonas Brothers

Strum the pre-chorus if you want to.
Leave a comment if you have any corrections :D

Verse:
e|-----------------------------------------------------|
B|-----------------------------------------------------|
G|-----------------------------------7777777777777777--| 
D|-7777777777777777-3333333333333333-7777777777777777--| x2
A|-7777777777777777-3333333333333333-5555555555555555--|
E|-5555555555555555-1111111111111111-------------------|
  [                     Palm Mute                    ]

Pre-Chorus:                     
e|-----------|
B|-----------|
G|-------3~--| 
D|-5~-3~-3~--|
A|-5~-3~-1~--|
E|-3~-1~-----|

Chorus:
e|----------------------------------------|
B|----------------------------------------|
G|-55555555-------------------------------| 
D|-55555555--5555-6666-77777777-33333333--| x2
A|-33333333--5555-6666-77777777-33333333--|
E|-----------3333-4444-55555555-11111111--|

Verse:
e|-----------------------------------------------------|
B|-----------------------------------------------------|
G|-----------------------------------7777777777777777--| 
D|-7777777777777777-3333333333333333-7777777777777777--| x2
A|-7777777777777777-3333333333333333-5555555555555555--|
E|-5555555555555555-1111111111111111-------------------|
  [                     Palm Mute                    ]
[ Tab from: http://www.guitaretab.com/j/jonas-brothers/191536.html ]
Pre-Chorus:                     
e|-----------|
B|-----------|
G|-------3~--| 
D|-5~-3~-3~--|
A|-5~-3~-1~--|
E|-3~-1~-----|

Chorus:
e|----------------------------------------|
B|----------------------------------------|
G|-55555555-------------------------------| 
D|-55555555--5555-6666-77777777-33333333--| x2
A|-33333333--5555-6666-77777777-33333333--|
E|-----------3333-4444-55555555-11111111--|

Bridge
e|----------------------------------------|
B|----------------------------------------|
G|-----------55555555-----------33333333--|
D|-7777-3333-55555555-7777-3333-33333333--|
A|-7777-3333-33333335-7777-3333-11111111--|
E|-5555-1111----------5555-1333-----------|

Chorus:
e|----------------------------------------| 
B|----------------------------------------|
G|-55555555-------------------------------| 
D|-55555555--5555-6666-77777777-33333333--| 
A|-33333333--5555-6666-77777777-33333333--|
E|-----------3333-4444-55555555-11111111--|
  [              Palm Mute              ]

e|----------------------------------------| 
B|----------------------------------------|
G|-55555555-------------------------------| 
D|-55555555--5555-6666-77777777-33333333--| x3
A|-33333333--5555-6666-77777777-33333333--|
E|-----------3333-4444-55555555-11111111--|

Outro:
e|-------------------------------------------| 
B|-------------------------------------------|
G|-55555555------------------------------5~--| 
D|-55555555--5555-6666-77777777-33333333-5~--| 
A|-33333333--5555-6666-77777777-33333333-3~--|
E|-----------3333-4444-55555555-11111111-----|
Related for Take A Breath tab