Guitaretab - guitar tabs
Song name
# A B C D E F G H I J K L M N O P Q R S T U V W X Y Z

Jonas Brothers - Cover Take On Me tab

this song is new of the jonas brothers:

intro:
-------------------------------------------------|
-------------------------------------------------|
-------------------------9999999999--------------|
-4444444444--9999999999--9999999999--77777777777-|   X3
-4444444444--9999999999--7777777777--77777777777-|
-2222222222--7777777777--------------55555555555-|


VERSE:

-------------------------------------------------|
-------------------------------------------------|
-------------------------9999999999--------------|
-4444444444--9999999999--9999999999--77777777777-|
-4444444444--9999999999--7777777777--77777777777-|
-2222222222--7777777777--------------55555555555-|

-------------------------------------------------|
-------------------------------------------------|
-------------------------9999999999--------------|
-4444444444--9999999999--9999999999--77777777777-|
-4444444444--9999999999--7777777777--77777777777-|
-2222222222--7777777777--------------55555555555-|

---------------------------------------------------|
---------------------------------------------------|
---------------------------------------------------|
-4444444444--9999999999--111111111111--77777777777-|
-4444444444--9999999999--111111111111--77777777777-|
-2222222222--7777777777--9-9-9-9-9-9---55555555555-|

CHORD:
take on me
---------------------------------------|
---------------------------------------|
9999999999-----------------------------|
9999999999--9999999999---111111111111--|
7777777777--9999999999---111111111111--|
------------7777777777---9-9-9-9-9-9---|
take me on
---------------------------------------|
---------------------------------------|
9999999999-----------------------------|
9999999999--9999999999---111111111111--|
7777777777--9999999999---111111111111--|
------------7777777777---9-9-9-9-9-9---|
Iíll be gone         In a day or two
-------------------  -------------------------------------------|
-------------------  -------------------------------------------|
999----------------  -----------99999999------------------------|
999--999---111111--  11---------99999999--9999999--111111111111-|
777--999---111111--  11---------77777777--9999999--111111111111-|
-----777---9-9-9---  9--------------------7777777--9-9-9-9-9-9--|

VERSE:
[ Tab from: http://www.guitaretab.com/j/jonas-brothers/192527.html ]
-------------------------------------------------|
-------------------------------------------------|
-------------------------9999999999--------------|
-4444444444--9999999999--9999999999--77777777777-|
-4444444444--9999999999--7777777777--77777777777-|
-2222222222--7777777777--------------55555555555-|

-------------------------------------------------|
-------------------------------------------------|
-------------------------9999999999--------------|
-4444444444--9999999999--9999999999--77777777777-|
-4444444444--9999999999--7777777777--77777777777-|
-2222222222--7777777777--------------55555555555-|

---------------------------------------------------|
---------------------------------------------------|
---------------------------------------------------|
-4444444444--9999999999--111111111111--77777777777-|
-4444444444--9999999999--111111111111--77777777777-|
-2222222222--7777777777--9-9-9-9-9-9---55555555555-|

CHORD:
take on me
---------------------------------------|
---------------------------------------|
9999999999-----------------------------|
9999999999--9999999999---111111111111--|
7777777777--9999999999---111111111111--|
------------7777777777---9-9-9-9-9-9---|
take me on
---------------------------------------|
---------------------------------------|
9999999999-----------------------------|
9999999999--9999999999---111111111111--|
7777777777--9999999999---111111111111--|
------------7777777777---9-9-9-9-9-9---|
Iíll be gone         In a day or two
-------------------  -------------------------------------------|
-------------------  -------------------------------------------|
999----------------  -----------99999999------------------------|
999--999---111111--  11---------99999999--9999999--111111111111-|
777--999---111111--  11---------77777777--9999999--111111111111-|
-----777---9-9-9---  9--------------------7777777--9-9-9-9-9-9--|

In a day or two
--------------------------------|
--------------------------------|
-9999999------------------------|
-9999999--99999999--1111111111--|
-7777777--99999999--1111111111--|
----------77777777--9-9-9-9-9---|

In a day or two
--------------------------------|
--------------------------------|
-9999999------------------------|
-9999999--99999999--1111111111--|
-7777777--99999999--1111111111--|
----------77777777--9-9-9-9-9---|

In a day or two
--------------------------------|
--------------------------------|
-9999999------------------------|
-9999999--99999999--1111111111--|
-7777777--99999999--1111111111--|
----------77777777--9-9-9-9-9---|

the end thank you...
peter_25_3@hotmail.com
Related for Cover Take On Me tab