Song name
# A B C D E F G H I J K L M N O P Q R S T U V W X Y Z

Jonas Brothers - Hold On tab

bobmcfobb893@hotmail.com

Verse 1
e|-------------------------------|
B|-------------------------------|
G|--44---------------------------| x4
D|--44--44--2222222222222222-----|
A|--22--44--2222222222222222-----|
E|------22--0000000000000000-----|

Chorus
e|-------------------------------|
B|-------------------------------|
G|--4----------------------------|
D|--4 16x-4------6------2--------|
A|--2-----4 x16--6 x16--2 x16----|
E|--------2------4------0--------|


Verse 2
e|-----------------------------|
B|-----------------------------|
G|--44-------------------------| x4
D|--44--44--2222222222222222---|
A|--22--44--2222222222222222---|
E|------22--0000000000000000---|

Chorus
e|-----------------------------|
B|-----------------------------|
G|--4--------------------------| x2
D|--4 16x-4------6------2------|
A|--2-----4 x16--6 x16--2 x16--|
E|--------2------4------0------|

e|--------------------------------|
B|--------------------------------|
G|--44----------------------------|
D|--44--44--2222222222222222------|
A|--22--44--2222222222222222------|
E|------22--0000000000000000------|

Play after bridge:
e|---------------------------|
B|---------------------------|
G|---------------------------|
D|-66--66--22--22------------|
A|-66--66--22--22------------|
E|-44--44--00--00------------|

Chorus
e|----------------------------|
B|----------------------------|
G|--4-------------------------| x3
D|--4 16x-4------6------2-----|
A|--2-----4 x16--6 x16--2 x16-|
E|--------2------4------0-----|

ending
|-------------------------|
|-------------------------|
|---44--------------------|
|---44---66--66--22-------|
|---22---66--66--22-------|
|--------44--44--00-------|
Tap to rate this tab
# A B C D E F G H I J K L M N O P Q R S T U V W X Y Z